All You Need Is Love Acoustic

Beatles

e|---------------------------------------------------------|

B|------------------3--3----3-----------0-------------3----|
G|----------0--0----2--2---(4)-4-------(0)-0----(0)---2----|
D|--0--2----0--0----0--0----5----5---------------2----0~---|
A|-----3----2--2----------------------2----------3--2------|
E|-----------------------------------------------3---------|

 ////
e|--3------2------0----0---0---------|
B|--0------3------0----0---0---------|
G|--0------2------0----0---0---(2x)--|
D|--0------0------2----0h2-2---------|
A|--2-----(0)-----2----2---2---------|
E|--3-------------0----0---0---------|


PART II:
 D7/AGD/F#D/EDD/C
    / //  / /  /  / /   / /    /   / /    /  /          FILL I:
e|--2-----3-------2-2-----2--------2-2-------2--|--------------------|
B|--1-----0-------3-3-----3---(3)--3-3-------3--|--------------------|
G|--2-----0-------2-2-----2--- 2---2-2-------2--|---------------0----|
D|--0-----0-------0-0-----0----0---0---------0--|------0----2-4------|
A|-(0)----2------(0)----------------------3-----|--2-3---------------|
E|--------3----2--------0-----------------------|--------------------|


VERSE:
 ////
e|--3------2------0----0---0---------|
B|--0------3------0----0---0---------|
G|--0------2------0----0---0---(2x)--|
D|--0------0------2----0h2-2---------|
A|--2-----(0)-----2----2---2---------|
E|--3------2------0----0---0---------|


CHORUS:
 GA7D7
    / //  / /   / //      FILL II:
e|--3-----0-----2----|---------------|
B|--0-----2-----1----|----7--6\5---0-|
G|--0-----0-----2----|----7--6\5\4---|
D|--0-----2-----0----|----0--0-0(0)--|
A|--2-----0----(0)---|---------------|
E|--3----------------|---------------|


SOLO: While playing verse chords.

e|-------------------------------------------------------------------------|
B|---10/12--10~\8--8/10p8------10/12-12--10p8-10--8/10p8---13-12--13-12-10~|
G|-7----------------------9~\7---------------------------9~----------------|
D|-------------------------------------------------------------------------|
A|-------------------------------------------------------------------------|
E|-------------------------------------------------------------------------|


CHRONOLOGY:

INTRO:

 GDEm
 Love      love        love

 GDEm
 Love      love        love

 D7/AGD/F#D/EDD/C
 Love     love       love                        

FILL I:

VERSE I:
 GD/F#EmEm7Em
 There's nothing you can do that can't be done     

 GD/F#EmEm7Em
 Theres nothing you can sing that can't be sung     

 D7/AGD/F#D/EDD/C
 Nothing you can say but you can learn to play the game It's easy 

FILL I:

CHORUS:

 GA7D7
 All you need is love

 GA7D7
 All you need is love

 GB7EmEm7
 All you need is love        love

 Cmaj7D7G
 Love is all you need

SOLO:

VERSE II:

 GD/F#EmEm7Em
 There's nothing you can make that can't be made    

 GD/F#EmEm7Em
 No one  you can save that can't be saved           

 D7/AGD/F#D/EDD/C
 Nothing you can do but you can learn how to be you in time It's easy 

FILL I:

CHORUS:

 GA7D7
 All you need is love

 GA7D7
 All you need is love

 GB7EmEm7
 All you need is love        love

 Cmaj7D7G
 Love is all you need

VERSE III:
 GD/F#EmEm7Em
 There's nothing you can know that isn't known     

 GD/F#EmEm7Em
 Nothing you can see that isn't shown    

 D7/AGD/F#D/EDD/C
 Nowhere you can be that isn't where you're meant to be It's easy 

FILL I:

CHORUS

 CD7G
 Love is all you need

G A7 D7 All you need is love

FILL II: G A7 D7
All together now All you need is love

FILL II: G A7 D7
Everybody now All you need is love

 G
 Love is all you need   (repeats) (she loves you yeah yeah yeah…)

END: G

A7 B7 C Cmaj7 D D/C D/E D/F# D7 Em Em7 G
variations - click chord images
Transpose chords:
Tuning:
Cool service:
View: Size:
A  A  A
Rating:
Layout:
  • Currently 2.8/5 Stars.
  • 1
  • 2
  • 3
  • 4
  • 5
 
Accuracy:
  • Currently 3/5 Stars.
  • 1
  • 2
  • 3
  • 4
  • 5
 
click stars to rate
Chordie recommends:
Get acoustic guitar lessons and electric guitar lessons at JamPlay.com
Songbook:
Login to add this song to your songbook
Support the artist
Preview/buy this song
MSN Music
Why this non-profit ad?

 
login to add comments/video/corrections