Chordie logo

Pockets   Beautiful South



-------------------------------------------------------------------------------
			     POCKETS - Beautiful South
-------------------------------------------------------------------------------
Tabbed by: TomleHat
Email: thom25j@yahoo.co.uk

Tuning: Standard

I've included all guitar parts but you will need to repeat a few riffs in places I 
mentioned.

MAIN RIFF:
e|----------------------------------------|
B|----------------------------------------|
G|--------7--7h9--6-----------------------|
D|-7--7h9-----------------------7--7h9--7-|
A|----------------------9--9h10-----------|
E|----------------------------------------|

VERSE: x2
e|------|
B|------|
G|------|
D|-9--7-| x6
A|------|
E|------|

e|--------------------------------|
B|-7-----------------7/10--8------|
G|----6-------------------------7-|
D|-------7--7p5-------------------|
A|--------------------------------|
E|--------------------------------|

CHORUS:
B D G A x2
B G A F# x2
G A G

MAIN RIFF
VERSE
CHORUS

OUTRO:
e|---------------------------------------------|
B|---------------7-----------------------------|
G|-----7h9-7p6------------------6-6h7-6--------|
D|-7h9----------------------7h9----------7---7-|
A|---------------------9h10----------------9---|
E|---------------------------------------------|

LAST BIT:
e|-----------|
B|-----------|
G|-----------|
D|-7--9--7h9-|
A|-----------|
E|-----------|


| /  slide up
| h  hammer-on
| p  pull-off


Important: The song above is NOT stored on the Chordie server. The original song is hosted at www.guitaretab.com. Chordie works as a search engine and provides on-the-fly formatting. Chordie does not index songs against artists/composers will. To remove this song please click here.

This song is displayed as text-only. Transposing and tuning is only available for chordpro-songs.

Login - add to songbook

Rating click stars to rate

Layout
Accuracy

SHARE PAGE  

You need to log in to post comments