Perfect 10

Beautiful South

E--------------------------------------------------------------------------|

B--------------------------------------------------------------------------|
G-----0-1-2-----------0-1-2-----------0-1-2--------------------------------|
D----2---------------2----------------2----------------0-1-2---------------|
A----------------------------------------------------2---------------------|
E--------------------------------------------------------------------------|
G----------------------------------------------------------------------|
D----------------------------------------------------------------------|
A----------------------------------------------------4-5-6-7-----------|
E----2-3-4-5-------2-3-4-5-----------2-3-4-5---------------------------|

 A
 When he's at my gate, with a big fat 8
 AE
 You wanna see the smile on my face
 A
 And even at my door, with a 4 4 4
 AE
 There ain't no man can replace

Then comes the chorus In which the bass and 1st guitar join guitar 2 with chords!

 ABm
 'Cause we love our love, in different sizes
 DA
I love her body, especially the lines
 Bm
Time takes it's toll, but not on the eyes
 EA
Promise me this, take me tonight

In verse three & four, the 1st guitar and bass come back in with the funky intro riff
the 2nd guitar plays chords again!!

 A
 If he's extra large well I'm in charge
 E
 I can work this thing on top
 A
 If he's XXL well what the hell
 E
 Every penny don't fit the slot

 A
 The anorexic chicks, the model 6
 E
 They don't hold no weight with me
 A
 Well 8 or 9, well that's just fine
 E
 But I like to hold something I can see

Back to chorus, yep you guessed it all guitars play chords!

 ABm
 'Cause we love our love, in different sizes
 DA
I love her body, especially the lines
 Bm
Time takes it's toll, but not on the eyes
 EA
Promise me this, take me tonight

Final Verse played the same as 2, 3 & 4

 A
 I've bought a watch, to time your beauty
 E
 But I've had to fit a second hand
 A
 I've bought a calendar, and every month
 E
 Is taken up by lover man

Chorus

 ABm
 'Cause we love our love, in different sizes
 DA
I love her body, especially the lines
 Bm
Time takes it's toll, but not on the eyes
 EA
Promise me this, take me tonight

Finally to end the song!!! Just strum the chords once in the verse!

 ABm
 'Cause we love our love, in different sizes
 DA
I love her body, especially the lines
 Bm
Time takes it's toll, but not on the eyes
 EA
Promise me this, take me tonight

END!!!!

Hope its okay! As it is my first tab in here, hope you enjoy it!!!


A Bm D E
variations - click chord images
Transpose chords:
Tuning:
Cool service:
View: Size:
A  A  A
Rating:
Layout:
  • Currently 2.6/5 Stars.
  • 1
  • 2
  • 3
  • 4
  • 5
 
Accuracy:
  • Currently 2.1/5 Stars.
  • 1
  • 2
  • 3
  • 4
  • 5
 
click stars to rate
Chordie recommends:
Learn to play songs at Jamplay.com with video guitar lessons
Songbook:
Login to add this song to your songbook
Support the artist
Preview/buy this song
MSN Music
Why this non-profit ad?

 
login to add comments/video/corrections