Guitar Tabs, Chords and Lyrics


Asshole  Beck

  ------------------------------



-------------------------------------------------------------------------------

----------
   [C]          [Em]          [A]                                                                      
E|----------------------------------|
B|-1---1--0--0---0--0--2-2-2--2-2-2-|
G|-0---0--0--0---0--0--2-2-2--2-2-2-|
D|-2---2--0--2---2--0--2-2-2--2-2-2-|
A|-3---3--0--2---2--0--0-0-0--0-0-0-| x5
E|--------0--0---0--0---------------|

Play this once then start singing.

Chorous
--------


   [F]                [Em]                [A]              [C]                                            
E|-1-1-1-1-1-1-1-|---------------|-----------------------------|
B|-2-2-2-2-2-2-2-|-0-0-0-0-0-0-0-|-2-2-2-2-2-2-2-1-1-1-1-1-1-1-|
G|-3-3-3-3-3-3-3-|-0-0-0-0-0-0-0-|-2-2-2-2-2-2-2-0-0-0-0-0-0-0-|
D|-0-0-0-0-0-0-0-|-2-2-2-2-2-2-2-|-2-2-2-2-2-2-2-2-2-2-2-2-2-2-|
A|-0-0-0-0-0-0-0-|-2-2-2-2-2-2-2-|-0-0-0-0-0-0-0-3-3-3-3-3-3-3-| x1
E|---------------|-0-0-0-0-0-0-0-|-----------------------------|


Main Riff
----------


   [C]          [Em]          [A]                                                                      
E|----------------------------------|
B|-1---1--0--0---0--0--2-2-2--2-2-2-|
G|-0---0--0--0---0--0--2-2-2--2-2-2-|
D|-2---2--0--2---2--0--2-2-2--2-2-2-|
A|-3---3--0--2---2--0--0-0-0--0-0-0-| x5
E|--------0--0---0--0---------------|


Chorous
--------


   [F]                [Em]                [A]              [C]                                            
E|-1-1-1-1-1-1-1-|---------------|-----------------------------|
B|-2-2-2-2-2-2-2-|-0-0-0-0-0-0-0-|-2-2-2-2-2-2-2-1-1-1-1-1-1-1-|
G|-3-3-3-3-3-3-3-|-0-0-0-0-0-0-0-|-2-2-2-2-2-2-2-0-0-0-0-0-0-0-|
D|-0-0-0-0-0-0-0-|-2-2-2-2-2-2-2-|-2-2-2-2-2-2-2-2-2-2-2-2-2-2-|
A|-0-0-0-0-0-0-0-|-2-2-2-2-2-2-2-|-0-0-0-0-0-0-0-3-3-3-3-3-3-3-| x1
E|---------------|-0-0-0-0-0-0-0-|-----------------------------|
-------------------------------------------------------------------------


Chords And Lyrics
------------------------------------


[C]Your brains went [E]black when she [A]took back her mouth
and [C]put it out [E]into the [A]sun
The [C]birds did [E]fly when the [A]heavens all went dry
And the [C]cigarettes are [E]smokin by [A]themselves

CHORUS
[F]She'll do anything
[E]She'll do anything
[A]She'll do anything to make you [C]feel like an asshole

Ca[C]ll her nam[E]e, she looks [A]the same as you
que[C]stion mark[E] stretched ac[A]ross the skin
She dan[C]gles carro[E]ts, makes you[A] feel embarressed
to[C] be the fo[E]ol you know y[A]ou are

CHORUS
[F]She'll do anything
[E]She'll do anything
[A]She'll do anything to make you [C]feel like an asshole
---------------------------------------------------------- 


And that's how you play beck asshole. Remember e-mail me with comments.
(spitfireIII@hotmail.com)

Important: The song above is NOT stored on the Chordie server. The original song is hosted at www.guitaretab.com. Chordie works as a search engine and provides on-the-fly formatting. Chordie does not index songs against artists'/composers' will. To remove this song please click here.

Text color:
Chord color:
Chord grids: 
Font size:    
Page size: 

A C E Em F
variations - click chord images

Login - add to songbook

Transpose chords

Tuning

Rating click stars to rate

Layout
Accuracy

Jango Player

SHARE PAGE  




You need to log in to post comments