Chordie logo

No Fall Too Far   Becoming The Archetype



-------------------------------------------------------------------------------
			     SONG NAME - Band Name
-------------------------------------------------------------------------------
Tabbed by:hardcore and a bag of chips and a monster
Email:

Tuning:CGCFAD

e|---------------------------------------------------------------|
B|---------------------------------------------------------------|
G|---------------------------------------------------------------|
D|-0-------------------------------------------------------------|
A|-0--8-7-3-55555555--8888--7777-55555555-8888-77-8--------------|
E|-0-------------------------------------------------------------|

e|----------------------------------------------------------------|
B|----------------------------------------------------------------|
G|----------------------------------------------------------------|
D|-0--------------------------------------------------------------|
A|-0-8-7-3-55555555-8888-7777-55555555-8888-10-12-----------------|
E|-0--------------------------------------------------------------|

e|--------------------------------------------------------------------------------------------------------------------|
B|--------------------------------------------------------------------------------------------------------------------|
G|--------------------------------------------------------------------------------------------------------------------|
D|-3p0-0-3p0-00-------------3p0-0-3p0-00------------3p0-0-3p0-00------------------------------------------------------|
A|-3p0-0-3p0-00--7-8888-777-3p0-0-3p0-00-7-8888-7-8-3p0-0-3p0-00-7-8888-777-------------------------------------------|
E|-3p0-0-3p0-00-------------3p0-0-3p0-00------------3p0-0-3p0-00------------       .     ..                 .     .. -|     ..


e|---------------------------|-----------------------------------------------|
B|---------------------------|-----------------------------------------------|
G|---------------------------|-----------------------------------------------|
D|-3p0-0-3p0-00--------------|-0---------------------------------------------|
A|-3p0-0-3p0-00-7-8888-10-12-|-0-8-7-3-55555555-8888-77-8-55555555-8888-1012-|
E|-3p0-0-3p0-00--------------|-0---------------------------------------------|
       .     ..
e|-----------------------------------------------|
B|-----------------------------------------------|
G|-----------------------------------------------|
D|-0---------------------------------------------|
A|-0-8-7-3-55555555-8888-77-8-5555555-8888-10-12-|
E|-0---------------------------------------------|

e|----------------------------|
B|----------------------------|
G|----------------------------|
D|----------------------------|
A|---8-9----6-8--0h5h6-5h6h8--|
E|-00-0--00--0-0--------------|


Important: The song above is NOT stored on the Chordie server. The original song is hosted at www.guitaretab.com. Chordie works as a search engine and provides on-the-fly formatting. Chordie does not index songs against artists/composers will. To remove this song please click here.

This song is displayed as text-only. Transposing and tuning is only available for chordpro-songs.

Login - add to songbook

Rating click stars to rate

Layout
Accuracy

SHARE PAGE  



You need to log in to post comments