Stand Alone

Bedouin Soundclash

 CF
e|---|---|-x-|---|---|		e|---|---|-x-|---|---|
B|-x-|---|---|---|---|		B|-x-|---|---|---|---|
G|---|---|---|---|---|		G|---|-x-|---|---|---|
D|---|-x-|---|---|---|		D|---|---|-x-|---|---|
A|---|---|-x-|---|---|		A|---|---|---|---|---|
E|---|---|-o-|---|---|		E|---|---|-o-|---|---|


 G
e|---|---|-x-|---|---|
B|---|---|---|---|---|
G|---|---|---|---|---|
D|---|---|---|---|---|
A|---|-x-|---|---|---|
E|---|---|-x-|---|---|


C*: A special pattern played constanly throughout song with the C chord

e|----3-3-3---3-3-3----|
B|----1-1-1---1-1-1----|
G|----0-0-0---0-0-0----|
D|----2-0-2---2-0-2----|
A|----3-3-3---3-3-3----|
E|---------------------|


Intro:

 FCFC
e|------------------------3-3---3-x-xx-3-3-3--|
B|------------------------1-1---1-x-xx-1-1-1--|
G|--------0-------0-----2-2-0---0-x-xx-2-2-0--|
D|------0-2-----0-2-----3-3-2---2-x-xx-3-3-2--|
A|----3-------3-----3-------3---3-x-xx-0-0-3--|
E|--------------------------------x-xx--------|


 CGC
e|--3-----1----3----------------------------|
B|--1-----0----1----------------------------|
G|--0-----0----0----------------------------|
D|--2---0-0----2----------------------------|
A|--3---2-2----3----------------------------|
E|------3-3---------------------------------|


C* F C F C G C

C* F C
Oh sister down on the floor

C* G C
Enemy is at your door

C* F C
Sister during her civil war

 FCGC
        Say I won't go until I stand alone

(Chorus)

C* F C
I won't go

 FCGC
        I won't go until I stand alone

C* F C
I won't go

 FCGC
        I won't go until I stand alone

C* F C
So when my backs to the wall,

C* G C
During the relentless squall

C* F C
I can hear her mornings call

F c G C
I won't go until I stand alone

Chorus

Ya!

No Guitar

Stand alone (stand alone) so
I won't go
I wont go until I stand alone
Stand alone (stand alone)
So

I won't go
I won't go until I stand alone
Ya!

Bridge

C* F c C* F C C* F C G

C* F C
And when the storm brakes

C* F C
And when the earth quakes

C* F C G
You make me know it won't last

C* F C
But tied to the ships' mast

C* F C
Your storm will soon pass

C* F C G C*
Standing alone you won't be flown

Chourus Repeated muiltiple times

(Ending) No Guitar

I won't go
I won't go until I stand alone


C F G
variations - click chord images
Transpose chords:
Tuning:
Cool service:
View: Size:
A  A  A
Rating:
Layout:
  • Currently 3.3/5 Stars.
  • 1
  • 2
  • 3
  • 4
  • 5
 
Accuracy:
  • Currently 2.8/5 Stars.
  • 1
  • 2
  • 3
  • 4
  • 5
 
click stars to rate
Chordie recommends:
Learn to play guitar with video-based, online guitar lessons at JamPlay.com
Songbook:
Login to add this song to your songbook
Support the artist
Preview/buy this song
MSN Music
Why this non-profit ad?

 
login to add comments/video/corrections