Guitar Tabs, Chords and Lyrics


Failure Is Relative   Before Today



-BEFORE TODAY   "FAILURE IS RELATIVE"(intro)
-by SomeBandQuote

Vic-
E-------------------------------------|
B-------------------------------------|
G-------------------------------------|
D--------9-9--5-5---------------------|
A---7-7-------------7-7---------------|
E-------------------------------------|

E--------------------------------------|
B--------------------------------------|
G--------------------------------------|
D--------9-9--5-5----------------------|
A---7-7-------------7-7----------------|
E--------------------------------------|

E----------------------------------------------------------|
B----------------------------------------------------------|
G----------------------------------------------------------|
D--------9-9---7-7--9-9--10-10--9-9--7-7--5-5--------------|
A---7-7----------------------------------------------------|
E----------------------------------------------------------|

Joe-

---------------------------------------|
---------------------------------------|
------------------5--------------------|
--2---------------5--------------------| 2 times i think
--2--let ring-----3---palm mute--------|


Important: The song above is NOT stored on the Chordie server. The original song is hosted at www.guitaretab.com. Chordie works as a search engine and provides on-the-fly formatting. Chordie does not index songs against artists'/composers' will. To remove this song please click here.

This song is displayed as text-only. Transposing and tuning is only available for chordpro-songs.

Login - add to songbook

Rating click stars to rate

Layout
Accuracy

SHARE PAGE  




You need to log in to post comments