Chordie logo


Snakes Are Snakes   Bell X1



Song: 	Snakes Are Snakes
Artist: BellX1
Album:	Music In Mouth
TabbeR: Trent Steel

r = ring
~ = vibrate
b = bend
/ = slide
pm= palm mute



Intro/Main Riff:

 		"I Need Some Creon Light"
e|------------------------------------------------------------------------| 
B|---3---3-3---3-3-3-3-3-3-----3---3-3---3-3-3-3-3-3----------------------|
G|---2---2-2---2-2-2-2-2-2-----2---2-2---2-2-2-2-2-2----------------------|  
D|-0-2-0-2-0-0-2-2-4-4-2-0---0-2-0-2-0-0-2-2-4-4-2-0-4-4-4-4-4-2-2-2-2-2--|
A|------------------------------------------------------------------------|
E|------------------------------------------------------------------------|
                            X3



Chorus:
	  "All This Serves To Tell Me"
e|-----------------------------------------------|------|
B|---3-3-3-3-3-3-3-3-3-3-3-3-3-3-3-3-3-3---------|--3-r-| 
G|---2-2-2-2-2-2-0-0-0-2-2-2-0-2-0-2-0-2----x2---|--2-r-| 
D|---0-0-2-0-2-0-3-3-3-2-2-2-0-2-0-2-0-0---------|--0-r-|
A|-----------------------------------------------|------|
E|-----------------------------------------------|------|



(Back Into The Main Riff x3 Again and Then Do The Chorus)


Outro:

	"I Need To Smell Like An Angel
	 I Need To Smell Like A Fool"	 
e|-----------------------------------------------------------|
B|---3---3-3---3-3-3-3-3-3-3---------------------------------|
G|---2---2-2---2-2-2-2-2-2-2------------------------------x4-|
D|-0-2-0-2-0-0-2-2-4-4-2-0-3-3-3-3-3-2-2-2-2-2-2-2-----------|
A|---------------------------0-0-0-0-0-0-0-0-0-0-0-----------|
E|-----------------------------------------------------------|



	"I Need To Smell Like IM PISSIN IN YOUR SWIMMING POOL"
e|------------------------------------------------------------------|
B|---3-3---3-3--3-3-3-3-3-3-----------------------------------------|
G|---2-2---2-2--2-2-2-2-2-2-----------------------------------------|
D|-0-2-2-0-2-0--2-2-4-4-2-0-3-3-3-3-2-2-2-2-2-2-4-4-4-4-4-4-2-2-2-2-|
A|--------------------------0-0-0-0-0-0-0-0-0-0-0-0-0-0-0-0-0-0-0-0-|
E|------------------------------------------------------------------|



Chorus:
	  "All This Serves To Tell Me"
e|-----------------------------------------------|------| 
B|---3-3-3-3-3-3-3-3-3-3-3-3-3-3-3-3-3-3---------|--3-r-|  
G|---2-2-2-2-2-2-0-0-0-2-2-2-0-2-0-2-0-2----x2---|--2-r-|  
D|---0-0-2-0-2-0-3-3-3-2-2-2-0-2-0-2-0-0---------|--0-r-|  
A|-----------------------------------------------|------| THE 
E|-----------------------------------------------|------| END 


This song is usually played with two guitars but this sounds good on just the
one. Its pretty easy aswell but LISTEN TO THE SONG FOR TIMING!  I did this tab
using the album track and also a live acoustic version recorded during Jenny
Housten's show on 2FM.  Go to www.bellx1.com for info on the


Important: The song above is NOT stored on the Chordie server. The original song is hosted at www.guitaretab.com. Chordie works as a search engine and provides on-the-fly formatting. Chordie does not index songs against artists/composers will. To remove this song please click here.

This song is displayed as text-only. Transposing and tuning is only available for chordpro-songs.

Login - add to songbook

Rating click stars to rate

Layout
Accuracy

SHARE PAGE  




You need to log in to post comments