Chordie logo

Sock Hop  Ben Gibbard

[G]It was the first two weeks of a[Em]utumn
I [C]kissed you on the cheek and gave you [Am]flowers out of [D]season and
[G]All the people at the dr[Em]ive in
Make o[C]ut with each other un-til[Am] the second fea[D]ture is


Closing, at the end and your roaming
E|-------------------------|
B|-------------------------|
G|---0----0-----0-----0----|
D|-------------2-----0-----|
A|--2----3-----------------|
E|-------------------------|


To find your keys in the lot
E|-------------------------|
B|-------------------------|
G|---0----0-----0-----0----|
D|-------------------------|
A|--2----3----0----3-------|
E|-------------------------|


[Em]Clo-[C]sing
[Am]At the [C]end and you're
[Em]Roam-[C]ing to
[Am]Find your k[C]eys in the l[G]ot


[G] I took you out on Fri[Em]day
We [C]shared a milkshake at the[Am] sock h[D]op; when we were
[G]Done, we went to watch the sun[Em] set
But it ne[C]ver sank as deep a[Am]s my h[D]eart did


Closing, at the end and your roaming
E|-------------------------|
B|-------------------------|
G|---0----0-----0-----0----|
D|-------------2-----0-----|
A|--2----3-----------------|
E|-------------------------|


To find your keys in the
E|-------------------------|
B|-------------------------|
G|---0----0-----0-----0----|
D|-------------------------|
A|--2----3----0----3-------|
E|-------------------------|


Closing, at the end and your roaming
E|-------------------------|
B|-------------------------|
G|---0----0-----0-----0----|
D|-------------2-----0-----|
A|--2----3-----------------|
E|-------------------------|



To find your keys in the lot
E|-------------------------|
B|-------------------------|
G|---0----0-----0-----0----|
D|-------------------------|
A|--2----3----0----3-------|
E|-------------------------|


[Em]Clo-[C]sing
[Am]At the [C]end and you're
[Em]Roam-[C]ing to
[Am]Find your k[C]eys in the

[Em]Clo-[C]sing
[Am]At the [C]end and you're
[Em]Roam-[C]ing to
[Am]Find your k[C]eys in the l[G]ot


G Em C Am D G x2

Important: The song above is NOT stored on the Chordie server. The original song is hosted at www.guitaretab.com. Chordie works as a search engine and provides on-the-fly formatting. Chordie does not index songs against artists/composers will. To remove this song please click here.

Am C D Em G
variations - click chord images

Login - add to songbook

Transpose chords

Tuning

Rating click stars to rate

Layout
Accuracy

SHARE PAGE  



You need to log in to post comments