Recycled Air

Ben Gibbard

   --------------------------------------------------------

--------------------------------------------------------

 CFGEm
e|--0--|--1--|--3--|--0--|
B|--1--|--1--|--3--|--0--|
G|--0--|--2--|--0--|--0--|
D|--2--|--3--|--0--|--2--|
A|--3--|--3--|--2--|--2--|
E|-----|--1--|--3--|--0--|


Intro Riff:

e||-------------0---|-------------0---|-------------0---|---------------||
B||-----1---1-3-1---|-----1---1-3-1---|-----1---1-3-1---|-3---1-0---0-1-||
G||*----0---0-0-0---|-----0---0-0-0---|-----0---0-0-0---|-0---0-0---0-0*||
D||*--------------0-|-3-3---3---------|-----------------|--------------*||
A||-3-3---3---------|---------------0-|-3-3---3-------3-|---------------||
E||-----------------|-----------------|-----------------|---------------||


 CF
 I take a breath    
 CG
 Hold the air until there's nothing left
 CF
 I'm feeling green    
 CG
 Teenage lovers between the sheets

(Riff)
ba ba-ba-ba ba ba-ba-ba ba ba-ba-ba ba ba ba 


 CF
 Knuckles clenched to white
 CG
 as the landing gear detracts for flight
 CF
 My head's a balloon
 CG
 Inflating with the altitude

(Riff)
ba ba-ba-ba ba ba-ba-ba ba ba-ba-ba ba ba ba (x3) 


 C
 I watch the patchwork farms
 F
 Slowly fade into the ocean's arms
 C
 and from here you can't see me stare
 F
 The stale taste of recycled air

 CGEm
 I watch the patchwork farms  
 FC
Slowly fade into the ocean's arms
 FEm
Calm down, release your cares
 F
The stale taste of recycled air

C Em F G
variations - click chord images
Transpose chords:
Tuning:
Cool service:
View: Size:
A  A  A
Rating:
Layout:
  • Currently 2.6/5 Stars.
  • 1
  • 2
  • 3
  • 4
  • 5
 
Accuracy:
  • Currently 3.5/5 Stars.
  • 1
  • 2
  • 3
  • 4
  • 5
 
click stars to rate
Chordie recommends:
Check out these online guitar lessons
Songbook:
Login to add this song to your songbook
Support the artist
Preview/buy this song
MSN Music
Why this non-profit ad?

 
login to add comments/video/corrections