Guitar Tabs, Chords and Lyrics


Apple Candy   Ben Lee



Apple Candy - Ben Lee

Intro/Verse/Chorus
e--0-0-0-0-0-0-0-0-0-0-0-0-0-0-0-0-0-0-0-0-0-0-0-0-0-0-0-0-0-0-0-0-0-0-0-0-|
B--------------------------------------------------------------------------|
G--------------------------------------------------------------------------|
D---------1-1-1-1---------1-1-1-1-0-0-0-0-1-1-1-1-0-0-0-0-1-1-1-1----------|
A-0-0-0-0---------0-0-0-0-----------------------------------------0-0-0-0--|
E--------------------------------------------------------------------------|

e--0-0-0-0-0-0-0-0-0-0-0-0-0-0-0--|
B---------------------------------| repeat this throught the verse and chorus
G---------------------------------|
D-1-1-1-1---------1-1-1-1---------|
A---------0-0-0-0---------0-0-0-0-|
E---------------------------------|

Istrumental 1 and 2
e--0-0-0-0-1-3-1-0-0-0-0-0-1-3-1-0-0-0-0-1-3-1-0-|
B------------------------------------------------|
G------------------------------------------------|
D---------------1-1-1-1-1-1----------------------|
A-0-0-0-0-0-0-0-------------0-0-0-0-0-0-0--------|
E------------------------------------------------|

I wanna know what he knows
I wanna feel how he felt
I wanna go where he's been

I wanna know what he knows
I wanna hear your secrets
I want you and I want him

Well you smell like apple candy
And we're singing hallelujah
And the edge in you affection broke my skin

But I wanna know what he knows
I wanna touch what he touched
Call me by his name

Cause I know you made a promise
You told him he's your lover
Make me feel the same

Well you smell like apple candy
And we're singing hallelujah
And I'm feeling so much younger than my years

But I wanna know what he knows
I wanna go where he's been
i want you and I want him

Well you siand go find some trouble
And you would do the same
Then we opened our hearts so we could change

Cause you smell like apple candy
And we're singing hallelujah
And you smell like apple candy
And your singing hallelujah

I wanna know what he knows
I wanna feel what he felt
I wammd touch what he touched
I wanna go where he went
I want you and I want him
END

Hey, this is my first tab, so if its confusing and unclear just fix it or make it up or 
to the song and fix it.


Important: The song above is NOT stored on the Chordie server. The original song is hosted at www.guitaretab.com. Chordie works as a search engine and provides on-the-fly formatting. Chordie does not index songs against artists'/composers' will. To remove this song please click here.

This song is displayed as text-only. Transposing and tuning is only available for chordpro-songs.

Login - add to songbook

Rating click stars to rate

Layout
Accuracy

SHARE PAGE  




You need to log in to post comments