Guitar Tabs, Chords and Lyrics


Rip A Head Off   Beowulf








Beowulf - Rip A Head Off
Submitted By: Beowulf
EMail: american_dreadnought@hotmail.com


Intro/Riff 1 (section I)*
E|-------------------------------------||
B|-------------------------------------||
G|-------------------------------------||
D|-5-----------------5-----------------||
A|-3-5-7--7-7--7-7---3-5-7--7-7--10-10-||
E|---3-5--5-5--5-5-----3-5--5-5---8--8-||

Intro/Riff 1 (section II)*
E|-------------------------------------||
B|-------------------------------------||
G|-------------------------------------||
D|-5-----------------5-----------------|
A|-3-5-7--7-7--7-7---3-5-7--7-7--3-3---||
E|---3-5--5-5--5-5-----3-5--5-5--1-1---||

Riff 2*
E|--------------------------------------------------------||
B|--------------------------------------------------------||
G|--------------------------------------------------------||
D|--------------------------------------------------------||
A|--------------------------------------------------------||
E|-2-2-0-2-3-2----2-2-3-0-3----2-2-0-2-3-0----0-0-3-2-2---||

Riff 3*
E|-------------------------------------||
B|-------------------------------------||
G|-------------------------------------||
D|------3-3------5-5-7-(hold)----------||
A|------3-3------5-5-7-(hold)----------||
E|-0000-1-1-0000-3-3-5-(hold)----------||
PM ....     ....


Important: The song above is NOT stored on the Chordie server. The original song is hosted at www.guitaretab.com. Chordie works as a search engine and provides on-the-fly formatting. Chordie does not index songs against artists'/composers' will. To remove this song please click here.

This song is displayed as text-only. Transposing and tuning is only available for chordpro-songs.

Login - add to songbook

Rating click stars to rate

Layout
Accuracy

SHARE PAGE  




You need to log in to post comments