Chordie logo


Salut Toi   Berurier Noir













e|--------------------|---------------------|
A|--------------------|---------------------|
D|-\9-x-x-9-x-x-9-x---|---------------------|
G|-\9-x-x-9-x-x-9-x---|--10-x-x-10-x-x-10-x-|
B|-\7-x-x-7-x-x-7-x---|--10-x-x-10-x-x-10-x-|
E|--------------------|---8-x-x--8-x-x--8-x-|


e|--------------------|---------------------|
A|--------------------|---------------------|
D|-\7-x-x-7-x-x-7-x---|---------------------|
G|-\7-x-x-7-x-x-7-x---|--8-x-x-8-x-x-8-x----|
B|-\5-x-x-5-x-x-5-x---|--8-x-x-8-x-x-8-x----|
E|--------------------|--6-x-x-6-x-x-6-x----|




Important: The song above is NOT stored on the Chordie server. The original song is hosted at www.guitaretab.com. Chordie works as a search engine and provides on-the-fly formatting. Chordie does not index songs against artists/composers will. To remove this song please click here.

This song is displayed as text-only. Transposing and tuning is only available for chordpro-songs.

Login - add to songbook

Rating click stars to rate

Layout
Accuracy

SHARE PAGE  




You need to log in to post comments