Carmella

Beth Orton

 DEADGBEG/DEADGBE
    xx0232         320033

 DG/DDG/D
   _   _   _   _    _   _   _   _    _   _   _   _    _   _   _   _
| | | | | | | | | | | | | | | | | | | | | | | | | | | | | | | |
hp
e ------232---2---|------3-----3-0-|------232---2---|------3-----3-0|
B ----3-----------|--3-----3-----3-|----3--hp-----3-|--3-----3-----3|
G --2-------2---0-|----0-----0-----|--2-------2-----|----0-----0----|
D 0---------------|----------------|0---------------|---------------|
A ----------------|----------------|----------------|---------------|
E ----------------|3---------------|----------------|3--------------|


 DG/DDG/D
   _   _   _   _    _   _   _   _    _   _   _   _    _   _   _   _
| | | | | | | | | | | | | | | | | | | | | | | | | | | | | | | |
p p
e ------32----2---|------3-----3-0-|------32----2---|------3-----3-0|
B ----3---3-------|--3-----3-----3-|----3---3-------|--3-----3-----3|
G --2-------2---0-|----0-----0-----|--2-------2---0-|----0-----0----|
D 0---------------|----------------|0---------------|---------------|
A ----------------|----------------|----------------|---------------|
E ----------------|3---------------|----------------|3--------------|


... keep playing whatever variations you feel like of these bars throughout the whole song, or strum the
while accentuating the notes on the G string to keep the right feel.























D G/D
variations - click chord images
Transpose chords:
Tuning:
Cool service:
View: Size:
A  A  A
Rating:
Layout:
  • Currently 0/5 Stars.
  • 1
  • 2
  • 3
  • 4
  • 5
 
Accuracy:
  • Currently 3.8/5 Stars.
  • 1
  • 2
  • 3
  • 4
  • 5
 
click stars to rate
Chordie recommends:
Learn to play songs at Jamplay.com with video guitar lessons
Songbook:
Login to add this song to your songbook
Support the artist
Preview/buy this song
MSN Music
Why this non-profit ad?

 
login to add comments/video/corrections