Chordie logo


Misunderstood   Better Than Ezra



I found more problems with the previous tabs, so I re did them. I am sure that
this one is correct, its a fun song enjoy it.

Intro
(This is not on the guitar by the way)
e---------------------------------------------------|
b---------------------------------------------------|
G---------------------------------------------------|
D---------------------------------------------------|
A--5-10-10--10-7-5-5--5-7-10-10---------------------|
E---------------------------------------------------|

VERSE

e-----3-3------0h2p0------3-3------------------------|
b-----3-3------3----------3-3----1p0-----------------|
G-----0-0-----------------0-0----0----2p0------------|
D--0--------0-------------2-2------------------------|x2
A------------------------------3---------------------|
E----------------------0-----------------------------|

e-----3-3------0h2p0------3-3------------------------|
b-----3-3------3----------3-3------------------------|
G-----0-0-----------------0-0--------0---------------|
D--0--------0-------------2-2------------------------|
A------------------------------3-3h5-----------------|
E----------------------0-----------------------------|

e-----3-3------0h2p0------3-3------------------------|
b-----3-3------3----------3-3---0-1-1p0--------------|
G-----0-0-----------------0-0-------0----------------|
D--0--------0-------------2-2-----------2p0----------|
A----------------------------------------------------|
E----------------------0-----------------------------|

PRE CHORUS

e----------------------------------------------------|
b----------------------------------------------------|
G----7----7--------5----5----------------------------|
D--5-7----7-2----2-5----5-5--------------------------| x2
A--5-5----5-2----2-3----3-5--------------------------|
E--3--------0----0--------3--------------------------|

CHORUS

e---3-----0------3------3----------------------------|
b---3-----3------3------3----------------------------|
G---0-----2------0------0----------------------------|
D---0-----0------2------x----------------------------|
A---x------------2------3----------------------------|
E---3------------0-----------------------------------|
    G     Dsus   Em7    Cadd9

SOLO

With effects
e--3h5-3----------------3h5-3-----------------------|
b--------5p3-3h5-3---3--------5p3-3h5-3-------------|
G------------------4--------------------4-----------|
D---------------------------------------------------|
A---------------------------------------------------|
E---------------------------------------------------|

e--3h5-3--------------------------------------------|
b--------5p3-3h5-3---3----2222--2222--4-------------|
G------------------4--------------------------------|
D---------------------------------------------------|
A---------------------------------------------------|
E---------------------------------------------------|

Clean

e--3h5-3----------------3h5-3-----------------------|
b--------5p3-3h5-3---3--------5p3-3h5-3-------------|
G------------------4--------------------4-----------|
D---------------------------------------------------|x4
A---------------------------------------------------|
E---------------------------------------------------|




Important: The song above is NOT stored on the Chordie server. The original song is hosted at www.guitaretab.com. Chordie works as a search engine and provides on-the-fly formatting. Chordie does not index songs against artists/composers will. To remove this song please click here.

This song is displayed as text-only. Transposing and tuning is only available for chordpro-songs.

Login - add to songbook

Rating click stars to rate

Layout
Accuracy

SHARE PAGE  




You need to log in to post comments