Guitar Tabs, Chords and Lyrics


Leg  Bettie Serveert



--------------0--------|

--0--0---0--------0----| x4
--3--------------------|
--5----5-5--5---5------|
-----------------------|
-----------------------|
  [F]                                   [C]                                                  
----0-------0-----0-------0------------0-------0-----0-------0---|
--0---0-0h1---1-0---0-0h1------------0---0-0h1---1-0---0-0h1---1-|
--2-----2-------2-----2-----0h2-0----0-----0-------0-----0-------|
--3-----3-------3-----3--------------2-----2-------2-----2-------|
--3-----3-------3-----3--------------3-----3-------3-----3-------|
-------------------------------------3-----3-------3-----3-------|

Play the F - C progression twice, then

   [F]           [G]                                                                         
---0----------0--------|
---1----------3--------|
---2----------4--------|
---3----------5--------|
---3----------5--------|
-----------------------|

Tuesdays and Fridays I
w[F]ait at the b[G]usstop
and g[F]uess who won't s[G]how up
I'm t[F]ired of w[G]aiting
C*
for you

C*
--0--0--0-------------------|
--1--1--0---0-1-0-------0---|
--0--0--0---------0-0h2-----|
--2--2--2-------------------|
--3--3--3-------------------|
--3--3--3-------------------|


Re[F]flections in p[G]uddles and
[F]rain on their f[G]aces
how aw[F]kward this p[G]lace is
It[F] all seems con[G]nected
C*
to you


Then, the F - C progression once, then
( this part twice ) | (first time only)
F G Am | Am
----0------0-----0----0--0s5--5---|--5--------|
----0--0h1---1---1s3--3--3s5--5---|----5------|
----2------------2s4--4--4s5--5---|------5----|
----3------------3s5--5--5s7--7---|-----------|
----3------------3s5--5--5s7--7---|-----------|
----------------------------------|-----------|



Play the F - C progression during the second verse

You w[F]arned me from the first time out
but I chose to ignore the things
[C]   you said
Of c[F]ourse it didn't take you long
to figure out a way to pull
[C]   my leg


If anyone knows the rest, please post it.
Thanks.
Dominick Mancine
dmancine@students.uiuc.edu

Important: The song above is NOT stored on the Chordie server. The original song is hosted at www.guitaretab.com. Chordie works as a search engine and provides on-the-fly formatting. Chordie does not index songs against artists'/composers' will. To remove this song please click here.

Text color:
Chord color:
Chord grids: 
Font size:    
Page size: 

C F G
variations - click chord images

Login - add to songbook

Transpose chords

Tuning

Rating click stars to rate

Layout
Accuracy

SHARE PAGE  




You need to log in to post comments