Smash Into You

Beyonce Knowles

----------------------------------------------------------------------------

----------------------------------------------------------------------------
e|--------------------------------------------------------------------------|
B|-2-2-2-2-2-2-2------------------------------------------------------------|
G|-3-3-3-3-3-3-3--3-3-3-3-3-3-3-3--6-6-6-6-6-6-6-6-6-6-6-6-6-6-6-6----------|
D|----------------4-4-4-4-4-4-4-4--6-6-6-6-6-6-6-6-6-6-6-6-6-6-6-6----------|
A|-1-1-1-1-1-1-1-------------------4-4-4-4-4-4-4-4-4-4-4-4-4-4-4-4----------|
E|----------------2-2-2-2-2-2-2-2-------------------------------------------|
----------------------------------------------------------------------------

 BbmF#
 I wanna run (run)
 C#G#
Smash into you  
 BbmF#
 I wanna run (run)
 C#G#
Smash into you  

Part A

 BbmF#
 Ears closed
 C#Bbm
What I hear no one else has to know
 F#
Cause' I know
 C#Bbm
That what we have is worth first place in gold
 F#
And I'm soaked in your love
 C#
And love is right in my path, in my grasp
 BbnF#C#
And me and you belong, oh...

Chorus:

 BbmF#
 I wanna run (run)
 C#G#
Smash into you  
 BbmF#
 I wanna run (run)
 C#G#
Smash into you  

Head down
As I watch my feet take turns hitting the ground
Eyes shut
I'm in love and I'm racing the Earth
And I'm soaked in your love
And love is right in my path, in my grasp
And me and you belong
Oh...I wanna run
Smash into you
I'm willing to run (run)
Smash into you
I'm ready to run, run, run, run, ooh ooh ooh ooh ooh
I'm ready to run, run, run, run, ooh ooh ooh ooh ooh
I wanna run, run
Smash into you
I'm willing to run (run)
Smash into you


Bbm C# F# G#
variations - click chord images
Transpose chords:
Tuning:
Cool service:
View: Size:
A  A  A
Rating:
Layout:
  • Currently 0/5 Stars.
  • 1
  • 2
  • 3
  • 4
  • 5
 
Accuracy:
  • Currently 0/5 Stars.
  • 1
  • 2
  • 3
  • 4
  • 5
 
click stars to rate
Chordie recommends:
Learn to play guitar with video-based, online guitar lessons at JamPlay.com
Songbook:
Login to add this song to your songbook
Support the artist
Preview/buy this song
MSN Music
Why this non-profit ad?

 
login to add comments/video/corrections