Guitar Tabs, Chords and Lyrics


Rainin 4am  Bicycle Thief

   [G]         [Em]         [C]         [D]         [Am]                                         
e|--3--|  |--0--|  |--0--|  |--2--|  |--0--|
b|--3--|  |--0--|  |--1--|  |--3--|  |--1--|
g|--0--|  |--0--|  |--0--|  |--2--|  |--2--|
d|--0--|  |--2--|  |--2--|  |--0--|  |--2--|
a|--2--|  |--2--|  |--3--|  |--0--|  |--0--|
e|--3--|  |--0--|  |-----|  |-----|  |-----|


Well[G] everybody needs someone to[Em] run to
When they're tired and sc[C]ared me I run to n[D]o one
And ev[G]erybody's got a dream they b[Em]elieve in
Let me tell you so[C]mething Me I believe in no[D]thing

It's 4[D] AM and I[Am] just got home And e[C]verybody's a[G]sleep
So I[D] just keep listenin' To Ir[Am]ma Thomas sing
"It's rai[C]nin' and rainin'" Over and over ag[D]ain
Well I[G] ain't lookin' for n[Em]one of your sympathy
I live my l[C]ife you know The way I want it to [D]be
But I [G]ain't never Never li[Em]ed to no one
And yet [C]everyone They lie to m[D]e
It's 4[D] AM and I[Am] just got home And e[C]verybody's a[G]sleep
So I[D] just keep listenin' To Ir[Am]ma Thomas sing
"It's rai[C]nin' and rainin'" Over and over ag[D]ain
SOLO:

(...^ =bend, h= hammer-on, p= pull off, -s-= slide)

e|--------------|--0-0-0-0-0--0--0-0-0-0-0--0--0-0-0-0-0-0-|
b|--------------|--8-8-8-7-8-10-10-7-7-5-5^-5^-5-5-5-3-5-5-|
g|--0-0-------0-|------------------------------------------|
d|--------------|------------------------------------------|
a|------5-s-----|------------------------------------------|
e|----------3---|------------------------------------------|
e|--0--0----0--0--0--0-0-0-0-0-0-0--0--0--0--0-0-0--|
b|-10-10-s-12-12-12-12-8-8-8-8-8-8-12-12-13-12-0-0--|
g|-11-11-s-12-12-12-12-9-9-9-9-9-9-12-12-12-12-0-9--|
d|--------------------------------------------------|
a|--------------------------------------------------|
e|--------------------------------------------------|
e|---------------------------------0-0--0--0-0-0----0--0---0-0----0--0-|
b|-0-0---0---0---0-0-0-0-0---0-0---0-8-10-10-8-8-s-12-12-s-8-8-s-12-12-|
g|-9-9-s-7-s-5-s-4-0-4h5-5-s-7-7-s-9-9--9--9-9-9-s-12-12-s-9-9-s-12-12-|
d|---------------------------------------------------------------------|
a|---------------------------------------------------------------------|
e|---------------------------------------------------------------------|
e|----0--0--0--0--0--0--0--0--0--0--0--0-0-0-0-0-10-10-----------------|
b|-s-15-15-15-15-15-16-16-16--0--0--0--0-0-0-8-8--8--8-8-8-8h10-----0--|
g|-s-16-16-16-16-16-16-16-16-12-12-12^-9-9-9-9-9--------------------0--|
d|---------------------------------------------------------------------|
a|---------------------------------------------------------------------|
e|---------------------------------------------------------------------|



Somet[G]imes I sit and Well I sit and w[Em]onder
What's the use in tr[C]ying Everything is so ba[D]ckwards
But for s[G]ome strange reason I keep on go[Em]ing
I never give [C]up No matter what  [D]
It's 4[D] AM and I[Am] just got home And e[C]verybody's a[G]sleep
So I[D] just keep listenin' To Ir[Am]ma Thomas sing
"It's rai[C]nin' and rainin'" Over and over ag[D]ain    [D]
well It's rai[G]ning so hard It's r[Em]aining so hard It's ra[C]ining so hard
I listen ove[D]r and over and over and over
It's rai[G]nin' baby It's ra[Em]inin' baby well its ra[C]inin baby
I listen ov[D]er and over and over and over
its ra[G]inin so hard, its ra[Em]inin so hard, its ra[C]inin so hard
well tha[D]ts what she sings, thats what she sings...
repeat and fade........

Important: The song above is NOT stored on the Chordie server. The original song is hosted at www.guitaretab.com. Chordie works as a search engine and provides on-the-fly formatting. Chordie does not index songs against artists'/composers' will. To remove this song please click here.

Text color:
Chord color:
Chord grids: 
Font size:    
Page size: 

Am C D Em G
variations - click chord images

Login - add to songbook

Transpose chords

Tuning

Rating click stars to rate

Layout
Accuracy

SHARE PAGE  




You need to log in to post comments