Guitar Tabs, Chords and Lyrics


La Country Hometown Blues  Bicycle Thief

   [A]          [E]       [F#]                                                                     
e|----|   |--0-|  |----|
b|--2-|   |--0-|  |----|
g|--2-|   |--1-|  |----|
d|--2-|   |--2-|  |----|
a|--0-|   |--2-|  |--4-|
e|----|   |--0-|  |--2-|


Hard to tab this, just play it with emotion and you should be fine.

e|-----------------------0-------------0-0-------------------------2-0----------|
b|-----------------------0-------------0-0--------------------------------------|
g|-----------------------1---------1--------------------------------------------|
d|--------2-2-2-2-2-2----2---------2-------2-2-2-2-h-4-2------------------------|
a|--------0-0-0-0-0-0--2-2-2-2-2---2-------0-0-0-0-------4--2---------------2---|
e|--0-2-4--------------0-0-0-0-0-0-0-0----------------------0-0-0-------0-0-0---|

repeat.


[A]Far Far Far From anywhere round h[E]ere
Well there's g[A]ot to be Some people Who truly don't give a[E] shit
'Bout this w[A]icked old town Where everybody lies to themselv[E]es
Where they gob[A]ble you up Swallow you down Spit you out [E]
Well there's no [A]place on earth So deceiving and so self po[E]ssessed
In the b[A]link of an eye You go from servant To rumor to gu[E]est
And it might look real pr[F#]etty From real far awa[E]y now yeah
Might seem p[F#]retty From way far away[E] now yeah
Everyone I've k[A]nown This town killed or they packed up and go[E]ne
And w[A]hy I'm still here Is a question and the answer's unk[E]nown
But the [A]cars keep a drivin' And the people keep pilin' on in[E]
With their hopes[A] and dreams All shinin' But they'll never ever Never get what they[E] want
And it might look real pr[F#]etty From real far away [E]now yeah
It might seem[F#] pretty From way far away no[E]w yeah
And it mig[F#]ht look real pretty From[E] real far away now yeah
It might seem[F#] pretty From way far away no[E]w yeah
It might seem pr[F#/]etty     (ah[F#/]hhh...aaahh[B/].aaaaah...aa[D]aahhh)
[D]But it's not real No it's not [A]real

Important: The song above is NOT stored on the Chordie server. The original song is hosted at www.guitaretab.com. Chordie works as a search engine and provides on-the-fly formatting. Chordie does not index songs against artists'/composers' will. To remove this song please click here.

Text color:
Chord color:
Chord grids: 
Font size:    
Page size: 

A D E F#
variations - click chord images

Login - add to songbook

Transpose chords

Tuning

Rating click stars to rate

Layout
Accuracy

SHARE PAGE  




You need to log in to post comments