Chordie logo

I Love Myself Today   Bif Naked



----------------------------------------------------------------------------
		      I Love Myself Today - Bif Naked
----------------------------------------------------------------------------
Tabbed by: Jackson Stewart (-God-Of-Rock-)
Email: littledrummerboy_07@hotmail.com

Tuning: Standard

Hey rockers, this is my first tab so please email with corrections, but I'm pretty sure 
fairly accurate ;)
Sorry but I have not entered the solo in here, couldn't figure it out!
So you'll have to search for it elsewhere, sorry!! :(

But Enjoy!

(DISTORTION GUITAR)

Intro Slide:
E|-------|
B|-------|
G|-------|
D|-------|
A|-------|
e|--15\--|

Intro Riff:                               Fill:
E|----------------------------------| x4  E|------------------|
B|----------------------------------|     B|------------------|
G|-------------------------------7--|     G|------------------|
D|4-44-2-4--44--7--4-44-2-4--44--7--|     D|------------------|
A|4-44-2-4--44--7--4-44-2-4--44--5--|     A|--2b3p2b-0--------|
e|2-22-0-2--22--5--2-22-0-2--22-----|     e|------------------|


Verse Riff: (Some Obvious Palm Mutes)
E|-------------------------------5--| x4
B|-------------------------------5--|
G|----------------------------------|
D|----------------------------------|
A|----------------------------------|
e|2-22-0-2--22--(5)--2-22-0-2--22---|


Bridge:
E|------------------------------------------|
B|------------------------------------------|
G|6-6-6-----6-6-6-----6--6-6--6-6--4--2-----|
D|6-6-6--5--6-6-6--5--6--6-6--6-6--4--2--6--|
A|4-4-4--5--4-4-4--5--4--4-4--4-4--2--0--6--|
e|-------3---------3---------------------4--|


Chorus:
E|---------------------------------------------|
B|---------------------------------------------|
G|-------9------------------------------9------|
D|4---7--9---9---4---7---2---9---4---7--9---9--|
A|4---7--7---9---4---7---2---9---4---7--7---9--|
e|2---5------7---2---5---0---7---2---5------7--|

Take another look at me now...Cause It's your Last Look..
E|----------------------------------------------------------|
B|----------------------------------------------------------|
G|--9-9-9-9-9-9-9-9-----------7-7-7-7-7-7-7-7---------------|
D|--9-9-9-9-9-9-9-9--7-9-7-9--7-7-7-7-7-7-7-7---7-9-7-9---7-|
A|--7-7-7-7-7-7-7-7--7-9-7-9--5-5-5-5-5-5-5-5---7-9-7-9---7-|
e|-------------------5-7-5-7--------------------5-7-5-7---5-|

Intro Riff x2

Verse Riff x3

Bridge x1

Chorus x2 (Second Chorus has solo :( sorry you'll have to get from another tab or find 
yourself sorry!) :(

I look into the mirror and i like what i see....
E|--12~~~--|
B|--12~~~--|
G|---------|
D|---------|
A|---------|
e|---------|

Bridge x1


Chopped Chorus:
E|---------------------------------------|
B|---------------------------------------|
G|-------------------------------9-------|
D|--4-----9---4-----2--9---4--7--9--9----|
A|--4-----9---4-----2--9---4--7--7--9----|
e|--2-----7---2-----0--7---2--5-----7----|

Take another look at me now...
E|----------------------------|
B|----------------------------|
G|--9-9-9-9-9-9-9-9-----------|
D|--9-9-9-9-9-9-9-9--7-9-7-9--|
A|--7-7-7-7-7-7-7-7--7-9-7-9--|
e|-------------------5-7-5-7--|

Chorus x1

Intro Riff x4

Rock Ending!!
E|-------------------------------------|
B|-------------------------------------|
G|-------------------------------------|
D|6-4-2-4-6-4-2-4-6-4-2-4-6-4-2-4---2--|
A|6-4-2-4-6-4-2-4-6-4-2-4-6-4-2-4---2--|
e|4-2-0-2-4-2-0-2-4-2-0-2-4-2-0-2---0--|

Again sorry for the lack of solo in there, I'm pretty sure i'll figure it out soon 
but until then try to find it among the other tabs for this song! But otherwise, enjoy!

Lyrics:
You left me like a broken doll
In pieces as I took the fall
for you, you dumb chump!
You left me free-falling like space junk
Burning up in the atmosphere of life

Well I sound like a philosopher
but I'm a fool who's off her rocker
'Cause I let you in my heart that one last time

I've had enough, made up my mind
I'm gonna get up and out and wahhh!

I love myself today

Not like yesterday
I'm cool, I'm calm
I'm gonna be okay! Uh huh
I love myself today
Not like yesterday
Take another look at me now
'Cause it's your last look
Your last look forever

Well look at you you're all puffed up
In that big red truck- but you're outta luck (this time)
Well, that's tough
'Cause I'm on fire- too hot to touch
with a chatroom full of lovers on the line
Gonna step right up. Spit shine my soul
I'm gonna be proud and loud and outta control!

I love myself today
Not like yesterday
I'm cool, I'm calm
I'm gonna be okay! Uh huh
I love myself today
Not like yesterday
Take another look at me now
'Cause it's your last look
Your last look forever

I'm lookin' in the mirror and I like what I see:
I've lost the fear & the horror that's been eating at me
'Cause being with you is like a hangman's noose
I was living my life in dead man's shoes

I've had enough. Made up my mind
I'm gonna get up and out and wahhh!

I love myself today
Not like yesterday
I'm cool, I'm calm
I'm gonna be okay! Uh huh
I love myself today
Not like yesterday
Take another look at me now

I love myself today
Not like yesterday
You're dead and gone
I'm gonna get my way
I love myself today
Not like yesterday
Take another look at me now
'Cause it's your last look
Your last look forever!!

I love myself today [x7]


First tab!
-God-Of-Rock-

| /  slide up
| \  slide down
| h  hammer-on
| p  pull-off
| ~  vibrato
| +  harmonic
| x  Mute note



Important: The song above is NOT stored on the Chordie server. The original song is hosted at www.guitaretab.com. Chordie works as a search engine and provides on-the-fly formatting. Chordie does not index songs against artists/composers will. To remove this song please click here.

This song is displayed as text-only. Transposing and tuning is only available for chordpro-songs.

Login - add to songbook

Rating click stars to rate

Layout
Accuracy

SHARE PAGE  

You need to log in to post comments