"yes"; ?> The Globe by Big Audio Dynamite Ii - guitar chords, guitar tabs and lyrics - chordie
-------------------------------------------------------------------------------

-------------------------------------------------------------------------------

 DDDD
e---5h8—3h6—1h4—0h2---------2-----2-----2-----2--------|
B---------------------------3-----3-----3-----3--------|
G---------------------------2-----2-----2-----2--------|
D---------------------------0-----0-----0-----0--------|
A------------------------------------------------------|
E------------------------------------------------------|

break it on down...

Harmonics

e---(7)—--------|
B-------(7)-----|
G---------------|  played throughout
D---------------|
A---------------|
E---------------|


Main Riff - (come on and dim the lights)

 DGDDDGD
e|--222---3-333---2x--2x---222-3x-----------2x-|
B|--333---0-000---3x--3x---333-0x-----------3x-|
G|--222---0-000---2x--2x---222-0x-----------2x-| repeated throughout
D|--------0-000----------------0x--------------|
A|--------2-222----------------2x--------------|
E|--------3-333----------------3x--------------|

Interlude

e---5h8—3h6—1h4—0h2---|
B---------------------|
G---------------------|
D---------------------|
A---------------------|
E---------------------|

waking up the global warming way...

| h hammer-on
|( ) harmonic
| x mute

Official Website: http://en.wikipedia.org/​wiki/​Big_​Audio_​Dynamite/













D G
variations - click chord images
Transpose chords:
Tuning:
Cool service:
View: Size:
A  A  A
Rating:
Layout:
  • Currently 3.4/5 Stars.
  • 1
  • 2
  • 3
  • 4
  • 5
 
Accuracy:
  • Currently 3/5 Stars.
  • 1
  • 2
  • 3
  • 4
  • 5
 
click stars to rate
Chordie recommends:
Get acoustic guitar lessons and electric guitar lessons at JamPlay.com
Songbook:
Login to add this song to your songbook
Support the artist
Preview/buy this song
MSN Music
Why this non-profit ad?

 
login to add comments/video/corrections