Vrn Se K Men

Big Foot Mama

-------------------------------------------------------------------------------

-------------------------------------------------------------------------------
e|--------2-----------------2---------------------------------------------|
b|--------2--------2--------2--------2------------------------------------|
g|-----------7-7-7-2-----------7-7-7-2------------------------------------|
d|------4----7-7-7-2------4----7-7-7-2------------------------------------|
a|----4------5-5-5-0----4------5-5-5-0------------------------------------|
e|--2-----------------2---------------------------------------------------|
e|----------------------------------------------------------------------------|
b|----------------------------------------------------------------------------|
g|-------------7-7-7-7--------------7-7-7----------------7-7-7----6-----------|
d|--4-2-4---4--7-7-7-7---4-2-4---4--7-7-7-7---4-2-4---4--7-7-7-7--6-----4-----|
a|--4-2-4---4--5-5-5-7---4-2-4---4--5-5-5-7---4-2-4---4--5-5-5-7--4-----4-----|
e|--2-0-2-0-2--------5---2-0-2-0-2--------5---2-0-2-0-2--------5--------2-----|

 F#DF#DA
 Zame si bla klas na obličju Boga
 F#DF#DA
 Edin'ga, ki jemlje, edin'ga, ki da   

 F#DF#DA
 Jaz pa sem bil tvoj dušni pastir     
 F#DF#DA
 Kovač idealov za v okvir        

riff 1:

Znal sem ti polizat prah iz oči
S cvetjem posipat vlažne dlani
Ampak sadež z drevesa vzel sem si sam
 Cm
No, zdej pa mam!

Chours:

 A
 DEJ, VRN' SE K MEN'
 Fis
 NEJ TI NE BO VSEEN'
 DA
 KER BI ŠE KDAJ OBLEKU TVOJO SRAJCO
 E
 IN BIL POTEŠEN

fill 2:

e|-----------------------------------------------------------|
b|-----------------------------------------------------------|
g|-------------------9---------------------------------------|
d|---7--9b--7----7-9----9p7-7--9b----------------------------|
a|-------------9---------------------------------------------|
e|-----------------------------------------------------------|


Thanks for your rating and comments =P

| / slide up
| \ slide down
| h hammer-on
| p pull-off
| ~ vibrato
| + harmonic
| x Mute note
===============================================================================


A Cm D E F#
variations - click chord images
Transpose chords:
Tuning:
Cool service:
View: Size:
A  A  A
Rating:
Layout:
  • Currently 2.9/5 Stars.
  • 1
  • 2
  • 3
  • 4
  • 5
 
Accuracy:
  • Currently 0/5 Stars.
  • 1
  • 2
  • 3
  • 4
  • 5
 
click stars to rate
Chordie recommends:
Learn to play this song & others via video guitar lessons at JamPlay.com
Songbook:
Login to add this song to your songbook
Support the artist
Preview/buy this song
MSN Music
Why this non-profit ad?

 
login to add comments/video/corrections