Chordie logo

content loaded from cache

BROKEN HEARTED SAVIOR  Big Head Todd and Monsters

   [G]             [C]         [F]            [G]             [C]         [F]                           
e----------------------------3---------------------------------3------
B------------------1-----------1---------------------1-----------1----
G------0------------0-----------0--------0------------0-----------0---
D-------0--------------0-3----------------0--------------0-3----------
A-----------0-2-3-----------------------------0-2-3-------------------
E--3---------------------------------3--------------------------------

[G]         [Gsus4]       [G]         [C]        [F]                                                     
e--3--3---3--3-3---3--------3--3-3--3--3-------------
B------------1-1------------1--1-1--1--1-------------
G-----------------------------------2--2------------- repeat x 1
D--------------------0-2-3--2--2-2--3--3--3--2--0----
A--2--2---2--2-2---2--------3--3-3-----------------3-
E--3--3---3--3-3---3---------------------------------

v v ^ ^ ^ v v v ^ ^ ^
Repeat the 2nd tab throughout the verses
=46ields are white in snowy spring and I can=92t remember the last time
that I=92ve seen her
The highway is still cold and wet and I can=92t forget the way I had to
leave her
And every passing day, she flickers and she fades
Is someone to catch her when she falls from the heavens?
[D]  And I=92ll love he[C]r yet, though she has done m[D]e wrong
And I=92ll bring he[C]r back, though she has been lon[D]g gone
And I=92ll alway[C]s be her, Broken hearted savior
Intro lick X 2
And every heavy night takes out the little life that=92s left within her
Every man she gives her love, he takes it, and leaves her with a
dinner
Our love was once a flame, now I=92m just a forgotten name
Am I the only one to blame for having loving her?
And I love her yet, she has done me wrong
Can I bring her back, she has been long gone
And I=92ll always be her, Broken hearted savior
Intro riff X 2
Lead
G Gsus4 G C F (repeat x 8)
Intro riff X 4

Important: The song above is NOT stored on the Chordie server. The original song is hosted at www.guitaretab.com. Chordie works as a search engine and provides on-the-fly formatting. Chordie does not index songs against artists/composers will. To remove this song please click here.

C D F G Gsus4
variations - click chord images

Transpose chords

Tuning

Rating click stars to rate

Layout
Accuracy

SHARE PAGE  



You need to log in to post comments