Broken Hearted Savior

Big Head Todd and Monsters

e----------------------------3---------------------------------3------|

B------------------1-----------1---------------------1-----------1----|
G------0-------------0-2---------0--------0------------0-2---------0--|
D-------0----------------3-----------------0---------------3----------|
A-----------0-2-3-----------------------------0-2-3-------------------|
E--3---------------------------------3--------------------------------|

 GGsus4GCF
e--3--3---3--3-3---3--------3--3-3--3--3-------------|
B------------1-1------------1--1-1--1--1-------------|
G-----------------------------------2--2-------------| repeat x 1
D--------------------0-2-3--2--2-2--3--3--3--2--0----|
A--2--2---2--2-2---2--------3--3-3-----------------3-|
E--3--3---3--3-3---3---------------------------------|

v v ^ ^ ^ v v v ^ ^ ^

Repeat the 2nd tab throughout the verses

Fields are white in snowy spring and I can't remember the last time that
I've seen her
The highway is still cold and wet and I can't forget the way I had to leave her
And every passing day, she flickers and she fades
Is someone to catch her when she falls from the heavens?

 CD
And I'll love her yet, though she has done me wrong
 CD
And I'll bring her back, though she has been long gone
 C
And I'll always be her, Broken hearted savior

Intro lick X 2

And every heavy night takes out the little life that's left within her
Every man she gives her love, he takes it, and leaves her with a dinner
Our love was once a flame, now I'm just a forgotten name
Am I the only one to blame for having loving her?

And I love her yet, she has done me wrong
Can I bring her back, she has been long gone
And I'll always be her, Broken hearted savior

Intro lick X 2

Lead
G Gsus4 G C F (repeat x 8)

Intro lick X 4


C D F G Gsus4
variations - click chord images
Transpose chords:
Tuning:
Cool service:
View: Size:
A  A  A
Rating:
Layout:
  • Currently 3/5 Stars.
  • 1
  • 2
  • 3
  • 4
  • 5
 
Accuracy:
  • Currently 2.7/5 Stars.
  • 1
  • 2
  • 3
  • 4
  • 5
 
click stars to rate
Chordie recommends:
Learn to play guitar with video-based, online guitar lessons at JamPlay.com
Songbook:
Login to add this song to your songbook
Support the artist
Preview/buy this song
MSN Music
Why this non-profit ad?

 
login to add comments/video/corrections