Baby I Love Your Way

Big Mountain

Please Rate this..

            ----------------------------------

BABY I LOVE YOUR WAY
            ----------------------------------

our band : www.bustedfuse.i8.com
see me at my friendster janmichael_dimpas2004@yahoo.com

Standard Tuning: EADGBE

(Intro)
 GDAm
 e|--3------5------5------|
 B|--3------5------5------|
 G|--4------7------5------|
 D|--5------7------7------|
 A|--5------5------7------|
 E|--3-------------5------|


Ohh baby i love your way...
everyday...
ohh baby i love your way..
everday..

Verse I. all upstrokes reggae style

 GBmEmCF7
 e|--3-3----7-7---7-7----8-8-8-8----8-8--8--8---------|
 B|--3-3----7-7---8-8----8-8-8-8----9-9--9--9---------|
 G|--4-4----7-7---9-9----9-9-9-9----8-8--8--8---------| 2X
 D|--------------------------------10-10-10-10--------|
 A|---------------------------------------------------|
 E|---------------------------------------------------|


Shadows grow so long before my eyes
And they're moving across the page
Suddenly the day turns into night far away from the city

 BmE7AmD7
 e|--7-7-7-7-----7-7-7-7------5-5-5-5-----10-10-10-10-------|
 B|--7-7-7-7-----8-8-8-8------5-5-5-5-----10-10-10-10-------|
 G|--7-7-7-7-----7-7-7-7------5-5-5-5-----11-11-11-11-------|
 D|--------------9-9-9-9------------------12-12-12-12-------|
 A|---------------------------------------------------------|
 E|---------------------------------------------------------|


But don't hesitate
Cause your love won't wait.

Chorus:

 GDAm
 e|--3-3-----5-5-----5-5-5-5---|
 B|--3-3-----5-5-----5-5-5-5---|
 G|--4-4-----7-7-----5-5-5-5---| 2x
 D|----------------------------|
 A|----------------------------|
 E|----------------------------|


Ooh, baby, I love your way. Wanna tell you,
I love your way. Wanna be with you night and day

Verse II.

 GBmEmCF7
 e|--3-3----7-7---7-7----8-8-8-8----8-8--8--8---------|
 B|--3-3----7-7---8-8----8-8-8-8----9-9--9--9---------|
 G|--4-4----7-7---9-9----9-9-9-9----8-8--8--8---------| 2X
 D|--------------------------------10-10-10-10--------|
 A|---------------------------------------------------|
 E|---------------------------------------------------|


Moon appears to shine and light the sky
With the help from some firefly
Wonder how they have the power to shine, shine, shine.
I can see them under the pine.

 BmE7AmD7
 e|--7-7-7-7-----7-7-7-7------5-5-5-5-----10-10-10-10-------|
 B|--7-7-7-7-----8-8-8-8------5-5-5-5-----10-10-10-10-------|
 G|--7-7-7-7-----7-7-7-7------5-5-5-5-----11-11-11-11-------|
 D|--------------9-9-9-9------------------12-12-12-12-------|
 A|---------------------------------------------------------|
 E|---------------------------------------------------------|


But don't hesitate
Cause your love won't wait.

Chorus:

 GDAm
 e|--3-3-----5-5-----5-5-5-5---|
 B|--3-3-----5-5-----5-5-5-5---|
 G|--4-4-----7-7-----5-5-5-5---| 2x
 D|----------------------------|
 A|----------------------------|
 E|----------------------------|


Ooh, baby, I love your way. Wanna tell you,
I love your way. Wanna be with you night and day

Verse III.

 GBmEmCF7
 e|--3-----7----7-----8-------8--------------|
 B|--3-----7----8-----8-------9--------------|
 G|--4-----7----9-----9-------8--------------| 2X
 D|--5-----9----9-----10------10-------------|
 A|--5-----9----7-----10------8--------------|
 E|--3-----7----------8----------------------|


I can see the sunset in your eyes
Brown and grey and blue besides

Clouds are stalking islands in the sun.
I wish I could buy one, out of season.

 BmE7AmD7
 e|--7-7-7-7-----7-7-7-7------5-5-5-5-----10-10-10-10-------|
 B|--7-7-7-7-----8-8-8-8------5-5-5-5-----10-10-10-10-------|
 G|--7-7-7-7-----7-7-7-7------5-5-5-5-----11-11-11-11-------|
 D|--------------9-9-9-9------------------12-12-12-12-------|
 A|---------------------------------------------------------|
 E|---------------------------------------------------------|


But don't hesitate
Cause your love won't wait.

Chorus:

 GDAm
 e|--3-3-----5-5-----5-5-5-5---|
 B|--3-3-----5-5-----5-5-5-5---|
 G|--4-4-----7-7-----5-5-5-5---| 2x
 D|----------------------------|
 A|----------------------------|
 E|----------------------------|


Ooh, baby, I love your way. Wanna tell you,
I love your way. Wanna be with you night and day

i cant find the official site: kindly see the given link.
big mountain album: see the link
http://www.reggae-reviews.com/bigmountain.html
listen to their music:
http://music.yahoo.com/track/920733
see their lyrical:
http://www.lyricsondemand.com/onehitwonders/babyiloveyourwaylyrics.html

Please Rate! thanks.

Am Bm C D D7 E7 Em F7 G
variations - click chord images
Transpose chords:
Tuning:
Cool service:
View: Size:
A  A  A
Rating:
Layout:
  • Currently 2.4/5 Stars.
  • 1
  • 2
  • 3
  • 4
  • 5
 
Accuracy:
  • Currently 2.3/5 Stars.
  • 1
  • 2
  • 3
  • 4
  • 5
 
click stars to rate
Chordie recommends:
Check out JamPlay.com for online video guitar lessons
Songbook:
Login to add this song to your songbook
Support the artist
Preview/buy this song
MSN Music
Why this non-profit ad?

 
login to add comments/video/corrections