Chordie logo


A War Inside   Big Wig



Artist: Bigwig
Song: A War Inside
Album: Reclamation (2006)
Tuning: Standard

Intro
e|----------------------------------------------------------|
b|----------------------------------------------------------|
g|----------------------------------------------------------|
d|--------------------------------------------9-7-5-4--5--4-|
a|--5555-------------5555------------5555-----9-7-5-4--5--4-|
e|------555577777777-----555577777777----5555-7-5-3-2--3--2-|
    ................ ........................
Riff Background 
e|-----------------play-1.5x-------------------|-------------------------|
b|---------------------------------------------|-------------------------|
g|--44444444---77777777---44444444-------------|--44444444-----------764-|
d|--44444444-5-77777777-7-44444444-5-777777777-|--44444444-5-77777777764-|
a|--22222222-5-55555555-7-22222222-5-777777777-|--22222222-5-77777777542-|
e|-----------3----------5----------3-555555555-|-----------3-55555555----|
                                                             ........
Verse 
e|-----------------------------------------|
b|-----------------------------------------|
g|--4---7---4---7777----------------------|
d|--4--57--74--577777777-4x4x4x4x4x4x4x4|
a|--2--55--72--555557777-4x4x4x4x4x4x4x4|
e|-----3---5---3----5555--2x2x2x2x2x2x2x2|


Chorus
e|----------------------------------------------------------------|
b|----------------------------------------------------------------|
g|--7777---------------7777---------------7777--------------------|
d|--7777-7777-99999999-7777-7777-99999999-7777-7777-9754-55554444-|
a|--5555-7777-99999999-5555-7777-99999999-5555-7777-9754-55554444-|
e|-------5555-77777777------5555-77777777------5555-7532-33332222-|

Riff Background
Verse (play with harmonics after each chord that is only played once) 
chorus

bridge
e|--play 4x--|------------------------------------|
b|-----------|------------------------------------|
g|-----------|------------------------------------|
d|--99997777-|--5x5x5x4/5-5x5x5x4/5-5x5x5x5x5x5x5-|
a|--99997777-|--5x5x5x4/5-5x5x5x4/5-5x5x5x5x5x5x5-|
e|--77775555-|--3x3x3x2/3-3x3x3x2/3-3x3x3x3x3x3x3-|

Chorus 2
e|-----------------------------------------------------------|
b|-----------------------------------------------------------|
g|-----------------------------------------------------------|
d|--------------------------------------------9754--55554444-|
a|--5555-------------5555-------------5555----9754--55554444-|
e|------555577777777-----555577777777-----55557532--33332222-|
    ................ ................ ........

Outro         (Now you feel the wrath...)
e|--play 4x--|-----------------------------------|-play til end-|
b|-----------|-----------------------------------|--------------|
g|-----------|-----------------------------------|--------------|
d|--99997777-|--9-7-9--9-7-9--999977779754-5--4--|--99997777----|
a|--99997777-|--9-7-9--9-7-9--999977779754-5--4--|--99997777----|
e|--77775555-|--7-5-7--7-5-7--777755557532-3--2--|--77775555----|

i couldnt really make out the little riffs on this one due to the


Important: The song above is NOT stored on the Chordie server. The original song is hosted at www.guitaretab.com. Chordie works as a search engine and provides on-the-fly formatting. Chordie does not index songs against artists/composers will. To remove this song please click here.

This song is displayed as text-only. Transposing and tuning is only available for chordpro-songs.

Login - add to songbook

Rating click stars to rate

Layout
Accuracy

SHARE PAGE  




You need to log in to post comments