Guitar Tabs, Chords and Lyrics


Tako Ti Je Mala Moja Kad Ljubi Bosanac   Bijelo Dugme



-------------------------------------------------------------------------------
		Tako Ti Je Mala Moja Kad Ljubi Bosanac - Bijelo Dugme 
-------------------------------------------------------------------------------

Tabbed by:Haris_rock
Email:paparaco123@hotmail.com

Tuning:Standard

Solo 1

e|------|--17------|------------------------------------|--------17------------------|
B|------|------17\-|-12h13------------------------------|---/17------17\--13---------|
G|-12b--|----------|-------14-12b14r12------12--14\-----|---------------------14-----|
D|------|----------|-------------------14---------------|----------------------------|
A|------|----------|------------------------------------|----------------------------|
E|------|----------|------------------------------------|----------------------------|
-
e|---------------------------------|
B|---------------------------------|
G|-12b14r12----12b14r12---12--14\--|
D|----------14----------14---------|
A|---------------------------------|
E|---------------------------------|

Now, keyboard solo, after that goes guitar solo 2...

Solo 2

e|15b17r15----15b17r15----15b17r15--|---15b17r15--------------|-/17-17----------------|
B|---------17----------17-----------|17----------17-13b15-13\-|--------17h15-13-------|
G|----------------------------------|-------------------------|-----------------14----|
D|----------------------------------|-------------------------|-----------------------|
A|----------------------------------|-------------------------|-----------------------|
E|----------------------------------|-------------------------|-----------------------|

e|-------------------------------|-8h10-12-10p8----|/17--------------------------------|
B|-------------------------------|--------------8\-|----16b18r16-----------------------|
G|-12b14r12----12b14r12---12-14\-|-----------------|----16b18r16-16b18r16--------------|
D|----------14----------14-------|-----------------|-------------16b18r16-16b18r16-----|
A|-------------------------------|-----------------|----------------------16b18r16-----|
E|-------------------------------|-----------------|-----------------------------------|

This tab is 100% correct.

| /  slide up
| \  slide down
| h  hammer-on
| p  pull-off


Important: The song above is NOT stored on the Chordie server. The original song is hosted at www.guitaretab.com. Chordie works as a search engine and provides on-the-fly formatting. Chordie does not index songs against artists'/composers' will. To remove this song please click here.

This song is displayed as text-only. Transposing and tuning is only available for chordpro-songs.

Login - add to songbook

Rating click stars to rate

Layout
Accuracy

SHARE PAGE  




You need to log in to post comments