Guitar Tabs, Chords and Lyrics


Take In The Sun   Bike



-#


Sent:   Sunday, December 14, 1997 6:28 PM

Artist: Bike
Title:  "Take In The Sun"
Source: from the 1997 album "Take In The Sun"
Lyrics/music by Andrew Brough
Performed by Andrew Brough, Tristan Mason,
             Wayne Bell, Jay Foulkes

Transcribed by James Orme

        So, this is the title track (and possibly the best)
off the debut album from the most under-rated band in the
world, so I hope that someone out there decided to search
for tab to their songs and was pleasantly surprised to find
something waiting for them (or horrified at how wrong it is,
but I'm sure it's correct.) If anyone wants to pick fault
with the tab, or make any comments or suggestions about it,
please send all that to: pigeonpie@isaac.globalnet.co.uk

Riff 1:

E|--4-4--3-1-3-1-3-|
B|--4-4--4-1-4-1-1-|
G|--5-5--3-2-3-2-2-|
Riff 2:

E|--6--X--X--X--X---X-X-X-X-X-|--4--X--X--X--X---X-X-X-X-X-|
B|--6--X--X--X--X---X-X-X-X-X-|--4--X--X--X--X---X-X-X-X-X-|
G|--7--X--X--X--X---X-X-X-X-X-|--5--X--X--X--X---X-X-X-X-X-|

E|--3--X--X--X--X---X-X-X-X-X-|--6--X--X--X--X---X-X-X-X-X-|
B|--4--X--X--X--X---X-X-X-X-X-|--6--X--X--X--X---X-X-X-X-X-|
G|--3--X--X--X--X---X-X-X-X-X-|--7--X--X--X--X---X-X-X-X-X-|

Riff 3:

E|--4--3---4--3---6-----8---|--4--3---4--3---6-|
B|--4--4---4--4---6-----9---|--4--4---4--4---6-|
G|--5--3---5--3---7-----8---|--5--3---5--3---7-|


INTRO:

Play Riff 1 ten times
then play Riff 2 once

VERSE:

Play Riff 2 twice

(1st time)
Inside the open air on Sunday
Cruising would go down well, if only
Clouds overhead in turn
Would head downstream

(2nd time)
Outside on picnic lawns so green
Eating 'til half past three, it seems
Skies overhead so blue
Would shine so clean

CHORUS:

Play Riff 3 once

So let's just stay here,
Take in the sun and dream of distant rain
So let's remain here,
Take in the sun and send cold winds away

then play Riff 1 four times

VERSE:

Play Riff 2 twice

(1st time)
Falling asleep in light that dazzles
Like it the way your mind unravels
Waking in time to see
It's time for tea

(2nd time)
Rising above a tree off yonder
Sun in the sky, it seems would ponder
How in the world did things
Get so serene?

then play:-
445xxx
And we'll get by and maybe

667xxx
See another sunny day

REPEAT CHORUS

then play Riff 1 four times

E|--6--X--X--X--X---X-X-X-X-X-|--X--X--X--X--X---X-X-X-X-X-|
B|--6--X--X--X--X---X-X-X-X-X-|--X--X--X--X--X---X-X-X-X-X-|
G|--7--X--X--X--X---X-X-X-X-X-|--X--X--X--X--X---X-X-X-X-X-|

E|--X--X--X--X--X---X-X-X-X-X-|--X--X--X--X--X---X-X-X-X-X-|
B|--X--X--X--X--X---X-X-X-X-X-|--X--X--X--X--X---X-X-X-X-X-|
G|--X--X--X--X--X---X-X-X-X-X-|--X--X--X--X--X---X-X-X-X-X-|

then play Riff 2 once

VERSE:

Play Riff 2 once

Inside the open air on Sunday
Cruising would go down well, if only
Clouds overhead in turn
Would head downstream

then play:-
445xxx
And we'll get by and maybe

667xxx
See another sunny day

CHORUS (with small variation)

E|--4--3---4--3---6-----8---|--4--3---4--3---6-----8---|
B|--4--4---4--4---6-----9---|--4--4---4--4---6-----9---|
G|--5--3---5--3---7-----8---|--5--3---5--3---7-----8---|

So let's just stay here,
Take in the sun and dream of distant rain
So let's remain here,
Take in the sun and send cold winds away
then play:-
445xxx
And we'll get by and maybe

667xxx            343xxx


Important: The song above is NOT stored on the Chordie server. The original song is hosted at www.guitaretab.com. Chordie works as a search engine and provides on-the-fly formatting. Chordie does not index songs against artists'/composers' will. To remove this song please click here.

This song is displayed as text-only. Transposing and tuning is only available for chordpro-songs.

Login - add to songbook

Rating click stars to rate

Layout
Accuracy

SHARE PAGE  




You need to log in to post comments