Wondrous Place

Billy Fury

-----------------------------------------------------------------------------

-----------------------------------------------------------------------------

 AmD
e|-----0----|-----2----|
B|-----1----|-----3----|
G|---2---2--|---2---2--|  X 4 for intro
D|----------|-0--------|
A|-0--------|----------|
E|----------|----------|


Verse
 AmDAmDAmD
e|-----0----|-----2----|-----0----|-----2----|-----0----|-----2----|
B|-----1----|-----3----|-----1----|-----3----|-----1----|-----3----|
G|---2---2--|---2---2--|---2---2--|---2---2--|---2---2--|---2---2--|
D|----------|-0--------|----------|-0--------|----------|-0--------|
A|-0--------|----------|-0--------|----------|-0--------|----------|
E|----------|----------|----------|----------|----------|----------|


 AmDAmGFmaj7EDm
e|-----0----|-----0----|-----0----|-----3----|-----0----|-----0----|-1--|
B|-----1----|-----0----|-----1----|-----0----|-----1----|-----0----|-3--|
G|---2---2--|---1---1--|---2---2--|---0---0--|---2---2--|---1---1--|-2--|
D|----------|----------|----------|----------|----------|----------|-0--|
A|----------|----------|-0--------|----------|----------|----------|----|
E|-1--------|-0--------|----------|-3--------|-1--------|-0--------|----|


Fill one
e|----------|
B|----------|
G|----------| Repeat Verse
D|----------|
A|----------|
E|--0--2--4-|


At end of 2nd verse play:

Fill two
e|----------|
B|----------|
G|----------|
D|----------|
A|--0--2--4-|
E|----------|


In similiar rhythm to Verse
Chorus (single strum) (single strum)
D Am D Am D Am D Am D Am G G Fmaj7 E Fill one

Back into verse:

Am D Am D Am D Fmaj7 E Am G Fmaj7 E Dm Fill one

Am D Am D Am D Fmaj7 E Am G Fmaj7 E Dm Fill two

Chorus.

Am D Am D Am D Fmaj7 E Am G Fmaj7 E Dm Fill one

Am D Am D Am D Fmaj7 E Am G Fmaj7 E Dm Fill two

Fade out

| / slide up
| \ slide down
| h hammer-on
| p pull-off
| ~ vibrato
| + harmonic
| x Mute note
=============================================================================


Am D Dm E Fmaj7 G
variations - click chord images
Transpose chords:
Tuning:
Cool service:
View: Size:
A  A  A
Rating:
Layout:
  • Currently 3.6/5 Stars.
  • 1
  • 2
  • 3
  • 4
  • 5
 
Accuracy:
  • Currently 3.6/5 Stars.
  • 1
  • 2
  • 3
  • 4
  • 5
 
click stars to rate
Chordie recommends:
Learn to play this song & others via video guitar lessons at JamPlay.com
Songbook:
Login to add this song to your songbook
Support the artist
Preview/buy this song
MSN Music
Why this non-profit ad?

 
login to add comments/video/corrections