"yes"; ?> Armour For Liars by Birds Of Tokyo - guitar chords, guitar tabs and lyrics - chordie

Armour For Liars

Birds Of Tokyo

----------------------------------------------------------------------------

----------------------------------------------------------------------------

 E5(2A5F5A5C5F5A5F5E5A5
e|---------------||-----------||----------------||--------||-------|
B|---------------||-----------||----------------||--------||-------|
G|-9---------2---||-x---x-x---||------2-\-5-----||-2------||----2--|
D|-9---------2---||-x---x-x---||-3----2-\-5--3--||-2--3---||-2--2--|
A|-7---------0---||-x---x-x---||-3----0-\-3--3--||-0--3---||-2--0--|
E|-0-------------||-----------||-1-----------1--||----1---||-0-----|


Acoustic guitar (strumming & singing)
Verse 1 & 2

E barre A

e|-7---------0--|
B|-8---------1--|
G|-9---------2--|
D|-9---------2--|
A|-7---------0--|
E|-0------------|


Song & Lyrics:

Intro
 E5(2A5E5(2A5
Verse 1
E barre A E barre A
Driving, we keep on driving, going no where
Silent, we keep it silent, no need to share at all

Bit Intro
x xx E5(2) A5 E5(2) A5

Verse 2
E barre A E barre A
Lately, things have been changing, but nobody cares
Save it, for someone who'll use it, not those with deaf ears

Chorus
 F5A5C5F5
    And when did you no-tice something wrong here?
When nobody listens and none of us care?
 F5A5C5D5
    So what are we doing? When will we make a change
 D5E5
    Or we lose what we once owned...

Bridge
 A5
 Hey kid, run on home again
No world news to sell again
 F5
 Hey kid, run on home again
 E5D5
 No world news to sell again 

Am A Am (strum)

Solo over Bridge 2
 E5A5
 Hate yourself, sorry but you're responsible, I would
 E5A5
 hate myself knowing that i'm responsible, Flowing
blood for wealth and oil, The
arms race and their toys, Power
suits and power ties, Corporate
armour built for liars,
 F5A5C5F5
     And when did you notice something wrong here?
When nobody listens and none of us care
 F5A5C5D5
     what you do? When will we make a change
 E5
     Or we lose what we once are...
 A5
 Hey kid, run on home again
 F5
 No world news to sell again

===========================================================================


A5 C5 D5 E5 F5
variations - click chord images
Transpose chords:
Tuning:
Cool service:
View: Size:
A  A  A
Rating:
Layout:
  • Currently 2.9/5 Stars.
  • 1
  • 2
  • 3
  • 4
  • 5
 
Accuracy:
  • Currently 2.8/5 Stars.
  • 1
  • 2
  • 3
  • 4
  • 5
 
click stars to rate
Chordie recommends:
Learn how to play guitar at JamPlay.com
Songbook:
Login to add this song to your songbook
Support the artist
Preview/buy this song
MSN Music
Why this non-profit ad?

 
login to add comments/video/corrections