Chordie logo


Poing   Bitch Alert



-----------------------------------------------------------------
	Band: Bitch Alert - www.bitchalert.org
	Song: Poing (..rriot album)
-----------------------------------------------------------------

    Main riff	            Intro
 e||------------------------||--------------------------------------|
 H||------------------------||--------------------------------------|
 G||------------------------||--------------------------------------|
 D||----4------------4------||-4--4-4-6-888-11-8-6-4--6-4-----------|
 A||------2-4----------2-4--||-----------------------------6-44-4-4-|
 E||-2---------2-2-2--------||--------------------------------------|

  ----------------------------------------------------------------||
  ----------------------------------------------------------------||
  ----------------------------------------------------------------||
  ------4--4-4-6-4-6b-4--6b-4-6-4----4----------------------------||
  --6-6----------------------------6---6-4-6-4---4----------------||
  ---------------------------------------------6---6-4-6-4-2-4-2--||
  b = bend


  chorus

    E5    F#5    G#5    D#5      F#5    D#5    H5
 ||-----|---------------------------------------------------||
 ||-----|---------------------------------------------------||
 ||-----|---------------8-8888----------8-888--4-4444-------||
 ||--2--|-4-444--6-666--8-8888---4-444--8-888--4-4444---(4)-||
 ||--2--|-4-444--6-666--6-6666---4-444--6-666--2-2222---(4)-||


Important: The song above is NOT stored on the Chordie server. The original song is hosted at www.guitaretab.com. Chordie works as a search engine and provides on-the-fly formatting. Chordie does not index songs against artists/composers will. To remove this song please click here.

This song is displayed as text-only. Transposing and tuning is only available for chordpro-songs.

Login - add to songbook

Rating click stars to rate

Layout
Accuracy

SHARE PAGE  




You need to log in to post comments