Chordie logo


So Broken   Bjork



e|---------------------------------------------------------------------------|
B|-----4-------4-----4-----4--------3-------3------4--------3----------8-----|
G|-----5-------5-----5-----5--------5-------5------5--------5----------7-----|
D|---------------------------------------------------------------------------|
A|---3-----------3------------3-5-------------5-------5-5----------6---------|
E|-------3-3-----------3-3------------5-5------------------------------------|



e|---------------------------------------------------------------------------|
B|--------8-------8--------8-------3--------3------4-------3-----------------|
G|--------7-------7--------7-------5--------5------5-------5-----------------|
D|---------------------------------------------------------------------------|
A|------------6----------------5---------------5------5-5--------------------|


Important: The song above is NOT stored on the Chordie server. The original song is hosted at www.guitaretab.com. Chordie works as a search engine and provides on-the-fly formatting. Chordie does not index songs against artists/composers will. To remove this song please click here.

This song is displayed as text-only. Transposing and tuning is only available for chordpro-songs.

Login - add to songbook

Rating click stars to rate

Layout
Accuracy

SHARE PAGE  




You need to log in to post comments