Guitar Tabs, Chords and Lyrics


Locust Street  Black Crowes

-------------------------------------------------------------------------------



-------------------------------------------------------------------------------

e|------------------------------------------|--0-----------------------------|
B|--0-1-0---0---1-0---0---1-0---0---1-0-----|--0-----------------------------|
G|--0-----2---0-----2---0-----2---0-----2-0-|--0-----------------------------|
D|--0---------------------------------------|--2-----------------------------|
A|------------------------------------------|--2-----------------------------|
E|-3*---------3*--------3*--------3*--------|-0------------------------------|
e|-0------------------------------------------0------------------------------|
B|-0---------------------0-1-0---0---1-0------0------------------------------|
G|-0---------------------0-----2---0-----2-0--0------------------------------|
D|-2---------------------0--------------------2------------------------------|
A|-2------------------------------------------2------------------------------|
E|-0--------------------3*---------3*---------0------------------------------|
[Em]Dry bread on the [G]table
[Em]Burn the mill salt the [G]paper
[D]And its easy pick-ins on Locust Street
[C]There's no place to [G]hide
[D]And you can't find love on Locust Street
[C]But you can hear the sunrise [G]crying
[C]Can't you hear the sunrise [G]crying
[C]A song for you [G]alone      [Em]
I play this little riff before going to riff after first chorus (it's the same one you
during the verse). Let the notes with * next to it ring:
Riff B
e|---------------------------------------------------------------------------|
B|-----------0-1-0---0---1-0-------------------------------------------------|
G|---0*---0*-0-----2---0-----2-0---------------------------------------------|
D|-----------0---------------------------------------------------------------|
A|---------------------------------------------------------------------------|
E|-0*---2*--3*---------3*----------------------------------------------------|


[Em]Sad eyes, weeping [G]willow
[Em]Black cat blues, blacked out [G]window

[D]And its easy pick-ins on Locust Street
[C]There's no place to [G]hide
[D]And you can't find love on Locust Street
[C]But you can hear the sunrise [G]crying
[C]Can't you hear the sunrise [G]crying
[C]A song for you [G]alone    [Em]
[Am]Just a glimpse of what [F]love could be
[C]Once a dream that I [G]owned
[Am]What of many lonely [F]longing souls
[C]At least I'm not [G]alone
*Guitar Solo - Luther plays a nice melodic solo in the key of A, mess around with it.
played during the solo are:
Am - F - C - G - Am - F - C - C - end on Em


*Before going to the next verse, play Intro (Riff A)

[Em]Ripe off the vine now lay [G]rotten
[Em]Like a dead end street forever [G]forgotten

[D]And its easy pick-ins on Locust Street
[C]There's no place to [G]hide
[D]And you can't find love on Locust Street
[C]But you can hear the sunrise [G]crying
[C]Can't you hear the sunrise [G]crying
[C]A song for you [G]alone
Enjoy!

Important: The song above is NOT stored on the Chordie server. The original song is hosted at www.guitaretab.com. Chordie works as a search engine and provides on-the-fly formatting. Chordie does not index songs against artists'/composers' will. To remove this song please click here.

Text color:
Chord color:
Chord grids: 
Font size:    
Page size: 

Am C D Em F G
variations - click chord images

Login - add to songbook

Transpose chords

Tuning

Rating click stars to rate

Layout
Accuracy

SHARE PAGE  




You need to log in to post comments