Guitar Tabs, Chords and Lyrics


Movin On Down The Line  Black Crowes

-------------------------------------------------------------------------------



-------------------------------------------------------------------------------

e|----2--2-p-0--------3------------------------------------------------------|
B|--------------3--1-----0---------------------------------------------------|
G|--------------------------0--2---------------------------------------------|
D|-0-------------------------------------------------------------------------|
A|---------------------------------------------------------------------------|
E|---------------------------------------------------------------------------|
[D7]The wheel within the wheel
The [C7]water below the well
Keep the [B]curtain drawn and the record on
And the curtain what do you say
Bring the [Bb]bottle here
Make the real unreal
And lets go out and play
It's [A]all right sisters
It's all right brother
We all [Ab]get down some[G]times

[C]Starting to show me
[G]Starting to know me
[C]Starting to feel the [G]shine
[C]Starting to let go
[G]Now that we know
[C]Time to move it on down the [G]line

The exit marks the hex
That moves from next to next
Keep your head on tight
To make it thru the night
You got to make a friend along the way
So cover up your tracks
And avoid a tax
And you'll live to love another day

It's all right sisters
It's all right brother
We all get down sometimes
Starting to show me
Starting to know me
Starting to feel the shine
Starting to let go
Now that we know
Time to move it on down the line


Riff after second chorus:
e|---------------------------------------------------------------------------|
B|-------------3~------------------------------------------------------------|
G|------3-h-5-----5--3-------------------------------------------------------|
D|--/5------------------3--1--3--1-------------------------------------------|
A|----------------------------------3----------------------------------------|
E|---------------------------------------------------------------------------|

Important: The song above is NOT stored on the Chordie server. The original song is hosted at www.guitaretab.com. Chordie works as a search engine and provides on-the-fly formatting. Chordie does not index songs against artists'/composers' will. To remove this song please click here.

Text color:
Chord color:
Chord grids: 
Font size:    
Page size: 

A Ab B Bb C C7 D7 G
variations - click chord images

Login - add to songbook

Transpose chords

Tuning

Rating click stars to rate

Layout
Accuracy

SHARE PAGE  




You need to log in to post comments