Guitar Tabs, Chords and Lyrics


Under A Mountain   Black Crowes



The Black Crowes
Song Title: Under A Mountain
TBC Original? Yes
Written By: Chris and Rich Robinson
Recording Session: Amorica, Three Snakes and One Charm
Record: Three Snakes and One Charm
Live Debut: 12/19/1995
Shows: 95 times played live
Notes: It is reported that this song was worked on during the sessions for Amorica, 
no studio recording from those sessions has been confirmed.

------------------------------
The above information was taken from www.crowesbase.com

I found the basis for this tab on a Black Crowes forum, so I must give credit where 
is due.  The majority of this tab was transcribed by someone who goes by the name of Steve 
but I made some minor changes.

Tuning: DGDGBD (Open G)

Intro/Verse
D--9-9-12-12-12----5-5-7-7-7---3-3-5-5-5----3-3-5-5-5--|
B--8-9-10-10-10----7-7-5-5-5---5-5-3-3-3----5-5-3-3-3--|
G--0-0--0--0--0----0-0-0-0-0---0-0-0-0-0----0-0-0-0-0--|
D--0-0--0--0--0----0-0-0-0-0---0-0-0-0-0----0-0-0-0-0--|
G--0-0--0--0--0----0-0-0-0-0---0-0-0-0-0----0-0-0-0-0--|
D------------------------------------------------------|

Listen to the song for the full rhythm.

Chorus
D--------------------|
B--------------------|
G--------4-----5-----|
D--2--3--x--4--x--5--| x 4
G--x--x--4--x--5--x--|
D--2--3-----4-----5--|


Bridge
D-----------|--------------------|
B-----------|--7----5----2----0--|
G--0-2-4-5--|--7----5----0----0--|
D--0-x-x-x--|--x----5----0----0--| x2
G--0-2-4-5--|--7----5----2----0--|
D-----------|--------------------|

Do not play the pickups on the repeat.

Solo Rhythm
D--0--0--0--0--0--0--0--0--------------0--0--0--0--0--0--0--0-0-0--0--0--|
B--2--2--2--2--1--1--1--1--------------2--2--2--2--1--1--1--7-7/8--8--8--|
G--0--0--0--0--0--0--0--0--0--5--2--3--0--0--0--0--0--0--0--0-0-0--0--0--|
D--3--3--3--3--2--2--2--2--0--x--x--x--3--3--3--3--2--2--2--7-7/9--9--9--|
G--------------------------0--5--2--3-----------------------0-0-0--0--0--|
D------------------------------------------------------------------------|

The timing of the last measure here is tricky.  Listen to the song for the strumming 


Important: The song above is NOT stored on the Chordie server. The original song is hosted at www.guitaretab.com. Chordie works as a search engine and provides on-the-fly formatting. Chordie does not index songs against artists'/composers' will. To remove this song please click here.

This song is displayed as text-only. Transposing and tuning is only available for chordpro-songs.

Login - add to songbook

Rating click stars to rate

Layout
Accuracy

SHARE PAGE  




You need to log in to post comments