Guitar Tabs, Chords and Lyrics


Goodbye Daughters Of The Revolution   Black Crowes



The Black Crowes
Song Title: Goodbye Daughters Of The Revolution
TBC Original? Yes
Written By: Chris and Rich Robinson
Recording Session: Warpaint
Record: Other, Warpaint
Live Debut: 03/02/2008
Shows: 88 times played live
Notes: This song was recorded in July, 2007 at Allaire Studios, Shokan, NY. It was
by Paul Stacey and The Black Crowes.

“It's a little bit cheeky that one. The whole idea is the paranoid utopian blues. We
it's bad, we know they've laid the trance on thick, but for those of us who can see through
we should run through the gates of the city and find ourselves in this place we want to 
I think that's the best sort of banner for the record to start under. If people are
if this is a rock & roll record, this is a good example of where our hearts and minds 
- Chris Robinson

This song was released as a single on January 22, 2008 from the album WARPAINT, which
be available everywhere on March 4, 2008.

-------------------------
The above information was taken from www.crowesbase.com

Tuning: DGDGBD (Open G)

Intro
D-----------------------------------|
B--7-7-7--7--7-7--7--7-7-7-7-7-7-7--|
G--5-5-5--5--5-5--0--0-0-0-0-0-0-0--|
D--7-7-7--7--7-7--7--7-7-7-7-7-7-7--| x8
G-----------------------------------|
D-----------------------------------|

Verse
D-------------------------------------|
B--5-5-5--5--5-5--5--5-5-5-5-5-5-5----|
G--3-3-3--3--3-3--0--0-0-0-0-0-0-0----|
D--5-5-5--5--5-5--5--5-5-5-5-5-5-5----| x2
G-------------------------------------|
D-------------------------------------|

1st ending
D--------------------------------|
B--4--5-5-5-4--4--4-4-4-4-4-4-4--|
G--4--4-4-4-4--4--4-4-4-4-4-4-4--|
D--4--6-6-6-4--4--4-4-4-4-4-4-4--| x2
G--------------------------------|
D--------------------------------|

On the repeat, continue to the second ending...

2nd ending
D------------------------------------------------------|
B--4--4--4-4--4--4-4-4-4-4-4-4----4--4--4-4--4--4-3-0--|
G--4--4--4-4--4--4-4-4-4-4-4-4----4--4--4-4--4--4-3-0--|
D--4--4--4-4--4--4-4-4-4-4-4-4----4--4--4-4--4--4-3-0--|
G------------------------------------------------------|
D------------------------------------------------------|

...which leads to the chorus.  Listen to the song to get exact rhythms for the verse parts.

Chorus
D----------|
B--5----0--|
G--5----0--|
D--5----0--| x4
G--5----0--|
D----------|

These chords are played with a similar rhythm to the verses.  Play the C for two
then the open G for two measures.  Repeat the whole figure four times.

After the first chorus, go back to the intro chords, which are repeated four times.

Solo Rhythm
D--------------|
B-----------0--|
G-----------0--|
D--3--2--1--0--| x4
G-----------0--|
D--3--2--1-----|

The solo is followed immediately by this:

Interlude
D----------|
B--5----7--|
G--5----7--|
D--5----7--|
G--5----7--|
D----------|

Play the C chord for 6 measures, then move up to the D for three and a half.  The last


Important: The song above is NOT stored on the Chordie server. The original song is hosted at www.guitaretab.com. Chordie works as a search engine and provides on-the-fly formatting. Chordie does not index songs against artists'/composers' will. To remove this song please click here.

This song is displayed as text-only. Transposing and tuning is only available for chordpro-songs.

Login - add to songbook

Rating click stars to rate

Layout
Accuracy

SHARE PAGE  




You need to log in to post comments