Guitar Tabs, Chords and Lyrics


Black Moon Creeping  Black Crowes

e[]----------------------------------------------------------------|


B[]--------------------3-------------------3-5-3-5-3-5-3-----------|


G[]---3--5-5---3--5-5-----5-5--3--5-5--3-5---------------5-3-5-----|      x3

D[]----------------------------------------------------------------|
A[]----------------------------------------------------------------|
E[]----------------------------------------------------------------|
Sl[C]eeping [G]eyes sl[A#]eep awh[G]ile
And let me [G]get to [C]know your [G]language
If [C]I be[G]lieve [A#]all I [G]see
I would [G]hate to be [C]around for the [G]dawn
Verse 2:

Sl[C]eeping [G]eyes s[A#]tay aw[G]hile
And [G]give me some [C]cause to re[G]joice
A [C]paro[G]dy [A#]of the [G]scene
Where my[G] three wishes were [C]granted to [G]me

Chorus: (I'm not really sure about this part. So, you know, any mistake don't you let me
jaja. I play it like this, if you find out another way to play it, just do it)

e[]-------------------------------|
B[]-------------------------------|
G[]------3------5------3----------|
D[]--3-5-3--3-5-5--3-5-3-3-5-5----|
A[]--3-5-1--3-5-3--3-5-1-3-5-5----|
E[]--1-3----1-3----1-3---1-3-3----|


or

e[]-----------------------------------|
B[]-----------------------------------|
G[]----------3-5-5--------3-----------|
D[]--3-5-5---3-5-5--3-5-5-3-3-5-5-----|
A[]--3-5-5---1-3-3--3-5-5-1-3-5-5-----|
E[]--1-3-3----------1-3-3---1-3-3-----|



What you got buried? In your backyard
What secret do you sleep with when the black moon come


Verse 3:

Sl[C]eeping [G]eyes [A#]please come [G]clean
I'm not [G]giving you the [C]third de[G]gree
[C]When you [G]live with [A#]no man's [G]time
Ain't it [G]hard to find some [C]peace of [G]mind

Verse 4:

Sl[C]eeping [G]eyes [A#]don't you [G]cry
And don't pre[G]tend this is [C]not an [G]ending
Your [C]histo[G]ry [A#]yes it [G]seems
Has been [G]swept [C]out with the [G]leaves

Chorus: Any of the two options


Bridge

e[]-----------------------------------|
B[]-----------------------------------|
G[]-----------------------------------|
D[]--7-7-7-7---9-10-10-10--5-5-5-5----|      x4
A[]--7-7-7-7---9-10-10-10--5-5-5-5----|
E[]--5-5-5-5---7-8--8--8---3-3-3-3----|
e[]------------------------------------------------|
B[]------------------------------------------------|
G[]-------------3-5-5-5-5--------------------------|
D[]--3-5-5-5-5--3-5-5-5-5--3-5-5-5-5--3-5-5-5-5----|    x4
A[]--3-5-5-5-5--1-3-3-3-3--3-5-5-5-5--3-5-5-5-5----|
E[]--1-3-3-3-3-------------1-3-3-3-3--1-3-3-3-3----|



Chorus: Any of the two options


Outro:


e[]--3-3--3-3--3-3--3-3---3-3-5-3--3-3--3----|
B[]--6-6--5-5--6-6--5-5---3-3-7-5--3-5--3----|
G[]--4-4--3-3--4-4--3-3---4-4-5-5--4-3--4----|
D[]--3-3--5-5--3-3--5-5---3-3-7-5--3-5--3----|
A[]--5-5--3-3--5-5--3-3---5-5-5-3--5-3--5----|
E[]--3-3-------3-3--------3-3------3----3----|



Goodbye People!!!!

+*+*+*Th€_Sinn€r*+*+*+

Important: The song above is NOT stored on the Chordie server. The original song is hosted at www.guitaretab.com. Chordie works as a search engine and provides on-the-fly formatting. Chordie does not index songs against artists'/composers' will. To remove this song please click here.

Text color:
Chord color:
Chord grids: 
Font size:    
Page size: 

A# C G
variations - click chord images

Login - add to songbook

Transpose chords

Tuning

Rating click stars to rate

Layout
Accuracy

SHARE PAGE  




You need to log in to post comments