Guitar Tabs, Chords and Lyrics


Jealous Again   Black Flag



Band: Black Flag
Song: Jealous Again
Album: Jealous Again

b=bend // k=keep bending

E|---------(5x)-----------|
B|------------------------|
G|--9999--------77777777--|
D|--9999--9999--77777777--|
A|--7777--9999--55555555--|
E|--------7777------------|

E|---------12--------12--------12--------12--|
B|------12--------12--------12--------12-----|
G|--14b-------14b-------14b-------14b--------|
D|-------------------------------------------|
A|-------------------------------------------|
E|-------------------------------------------|

(Always on the phone...)
E|---------(3x)-----------|
B|------------------------|
G|--9999--------77777777--|
D|--9999--9999--77777777--|
A|--7777--9999--55555555--|
E|--------7777------------|

E|---------12--------12--------12--------12--|
B|------12--------12--------12--------12-----|
G|--14b-------14b-------14b-------14b--------|
D|-------------------------------------------|
A|-------------------------------------------|
E|-------------------------------------------|

(Said I'll never...)
E|-----------------(2x)-------------|
B|----------------------------------|
G|----------------9-9-7-------------|
D|--999999999999--9-9-7-9-77777777--|
A|--999999999999--7-7-5-9-77777777--|
E|--777777777777--------7-55555555--|

E|------------------------------k-k-k-k-k--|
B|-----------k-k-k-k-k--12-15b-1515151515--|
G|--12-14b--1414141414---------------------|
D|-----------------------------------------|
A|-----------------------------------------|
E|-----------------------------------------|

(I won't beat...)
E|---------(3x)-----------|
B|------------------------|
G|--9999--------77777777--|
D|--9999--9999--77777777--|
A|--7777--9999--55555555--|
E|--------7777------------|

E|---------12--------12--------12--------12--|
B|------12--------12--------12--------12-----|
G|--14b-------14b-------14b-------14b--------|
D|-------------------------------------------|
A|-------------------------------------------|
E|-------------------------------------------|

(I wanna go and...)
E|---------(3x)-----------|
B|------------------------|
G|--9999--------77777777--|
D|--9999--9999--77777777--|
A|--7777--9999--55555555--|
E|--------7777------------|

E|---------12--------12--------12--------12--|
B|------12--------12--------12--------12-----|
G|--14b-------14b-------14b-------14b--------|
D|-------------------------------------------|
A|-------------------------------------------|
E|-------------------------------------------|

(Said I'll never...)
E|-----------------(2x)-------------|
B|----------------------------------|
G|----------------9-9-7-------------|
D|--999999999999--9-9-7-9-77777777--|
A|--999999999999--7-7-5-9-77777777--|
E|--777777777777--------7-55555555--|

E|------------------------------k-k-k-k-k--|
B|-----------k-k-k-k-k--12-15b-1515151515--|
G|--12-14b--1414141414---------------------|
D|-----------------------------------------|
A|-----------------------------------------|
E|-----------------------------------------|

Sorry, didn't tab the solo...

(Said I'll never...)
E|-----------------(2x)-------------|
B|----------------------------------|
G|----------------9-9-7-------------|
D|--999999999999--9-9-7-9-77777777--|
A|--999999999999--7-7-5-9-77777777--|
E|--777777777777--------7-55555555--|

E|------------------------------k-k-k-k-k--|
B|-----------k-k-k-k-k--12-15b-1515151515--|
G|--12-14b--1414141414---------------------|
D|-----------------------------------------|
A|-----------------------------------------|
E|-----------------------------------------|

(You're jealous again...)
E|---------(2)-----------|
B|------------------------|
G|--9999--------77777777--|
D|--9999--9999--77777777--|
A|--7777--9999--55555555--|
E|--------7777------------|

(You're jealous again and again and again...)
E|------------------------------------------------------|
B|------------------------------------------------------|
G|--9999--------7777--------5555--------3333------------|
D|--9999--9999--7777--7777--5555--5555--3333--3333--2~--|
A|--7777--9999--5555--7777--3333--5555--1111--3333--2---|


Important: The song above is NOT stored on the Chordie server. The original song is hosted at www.guitaretab.com. Chordie works as a search engine and provides on-the-fly formatting. Chordie does not index songs against artists'/composers' will. To remove this song please click here.

This song is displayed as text-only. Transposing and tuning is only available for chordpro-songs.

Login - add to songbook

Rating click stars to rate

Layout
Accuracy

SHARE PAGE  




You need to log in to post comments