Guitar Tabs, Chords and Lyrics


I Got Mine   Black Keys



i saw this performed on youtube and i guess its off the new album
i just was messin' 'round and think this is the main part

#cutline# something along the lines of:
--------------------------|
--------------------------|
-8---8-5-6---6-5-4---3---2|
-9---9-8-7---7-6-5---4---3|
-9---9-8-7---7-6-5---4---3|
-7---7-6-5---5-4-3---2---1|

#cutline#
-------------------------------------------------------------|
-------------------------------------------------------------|
-------------------------------------------------------------|
----------------------3h5p3----------------------------------|
----5p3h5-----5p3h5---------5-------5p3h5-----5p3h5----------|
-0---------0----------------------0---------0----------3h5p3-|

#cutline#
-------------------------|
----*-----*-----*----8b--|
-1--1--4--4--6--6--------|
-2--2--5--5--7--7--------|
-2--2--5--5--7--7--------|
-0--0--3--3--5--5--------|
(asterisks are meant to be up-strokes, I think they sound right like that)
also played like:
------0-0*---*--3b------------|
---*--0-0--2-2----------------|
-1-1-------2-2----------------|
-2-2-------2-2----------------|
-2-2--2-2--0-0----------------|
-0-0--3-3---------------------|

then during "solo"
-------------------------|
-------------------------|
-1~-2~--4~--2---1--------|
-2~-3~--5~--3---2--------|
-2~-3~--5~--3---2--------|


Important: The song above is NOT stored on the Chordie server. The original song is hosted at www.guitaretab.com. Chordie works as a search engine and provides on-the-fly formatting. Chordie does not index songs against artists/composers will. To remove this song please click here.

This song is displayed as text-only. Transposing and tuning is only available for chordpro-songs.

Login - add to songbook

Rating click stars to rate

Layout
Accuracy

SHARE PAGE  




You need to log in to post comments