Chordie logo


Remember When   Black Keys



-------------------------------------------------------------------------------
	      Remember When (Side B) – The Black Keys
-------------------------------------------------------------------------------
Tabbed by: Ben Pattyson	

I like this solo. Simple yet awesome. Cheers.

Solo (1:10)

e|---------------------------------------------|
B|---------------------------------------------|
G|---------------------------------------------|
D|---------------------------------------------|
A|----------------4-6--------------------4--6--|
E|-4--7-4--7-4--7-----7--4--7-4--7-4--7--------|

e|---------------------------------------------|
B|---------------------------------------------|
G|---------------------------------------------|
D|---------------------------------------------|
A|-------------5-7-5------------------5-7s9-9--|
E|-7--5s7--5-7-------7-5--7--5-7--5-7----------|

e|----------------------------------------------------------------------|
B|----------------------------------------------------------------------|
G|-----------------------------------------------------4---4---4---4----|
D|-9--7-9--7-9--------------4-4------------------------6b8-6b8-6b8-6b8--|
A|--------------7--5-7-5--5-----7-5-7-5-------5-------------------------|
E|--------------------------------------7-5-7---7-5-7-------------------|

e|-----------------------------------------------------------------|
B|-4---4---4---4-----4---4---4---4---------------------------------|
G|-6b8-6b8-6b8-6b8---6b8-6b8-6b8-6b8---6-4-6-4-------4-------------|
D|---------------------------------------------6-4-6---6-4-6--4-6--|
A|-----------------------------------------------------------------|
E|-----------------------------------------------------------------|

| s  slide
| b  bend
===============================================================================


Important: The song above is NOT stored on the Chordie server. The original song is hosted at www.guitaretab.com. Chordie works as a search engine and provides on-the-fly formatting. Chordie does not index songs against artists/composers will. To remove this song please click here.

This song is displayed as text-only. Transposing and tuning is only available for chordpro-songs.

Login - add to songbook

Rating click stars to rate

Layout
Accuracy

SHARE PAGE  




You need to log in to post comments