Guitar Tabs, Chords and Lyrics


My Mind Is Ramblin   Black Keys



My Mind is Ramblin
Black Keys
Standard E tuning

intro          
|--------------|(X2)|---------------------------------------------------|
|--------------|    |---------------------------------------------------|
|--------------|    |---------------------------------------------------|
|-------9-7---7|    |-------11-9-------9---7-------9/11-9-------7/9---7-|
|-----7-----9--|    |-----7----------7---9-------7------------7-----9---|
|-7-9----------|    |-7-9--------7-9---------7-9----------7-9-----------|

Verse
|--------------|
|--------------|
|--------------|
|-------9-7---7|
|-----7-----9--|
|-7-9----------|

Fill#1
|---------------------|
|---------------------|
|---------------------|
|-------9/11-9-7/9---7|
|-----7------------9--|
|-7-9-----------------|

Fill#2
|----------------------------------------------|
|----------------------------------------------|
|----------------------------------------------|
|---------------------------------------9-7---7|
|-----7-9-9-9-9-9-9-9-9-9-9-9-9-9-----7-----9--|
|-7-9-----------------------------7-9----------|
             (lightly pick string near the bridge)

outro
|------------------|X2
|------------------|
|------------------|
|-------11-9-9---7-|
|-----7--------9---|
|-7-9--------------|


Important: The song above is NOT stored on the Chordie server. The original song is hosted at www.guitaretab.com. Chordie works as a search engine and provides on-the-fly formatting. Chordie does not index songs against artists/composers will. To remove this song please click here.

This song is displayed as text-only. Transposing and tuning is only available for chordpro-songs.

Login - add to songbook

Rating click stars to rate

Layout
Accuracy

SHARE PAGE  




You need to log in to post comments