Chordie logo

Final Solution   Black Label Society



Zakk Wylde's Black Label Society
Album: The Blessed Hellride
Song: Final Solution
Tuning: B A D G b E

I have most of the song down. Everything should be just 99% correct until you get the
Layer 3. I can play something that sounds similar to that part of the song, but it's not
he's actually playing, so I didn't bother tabbing it. I did as much as I could right 
and I think it's better than the other tabs for this song. Song structure is pretty
if you listen to it.

----------------------------------
h - hammer on        KEY
p - pull off
. - palm mute
* - pinch harmonic
/ - slide up
\ - slide down
b - half-step bend
B - whole-step bend
v - vibrato
----------------------------------


 Main Riff
E|--------------------|-----------------|
b|--------------------|-----------------|
G|--------------------|-----------------|
D|-0h2------0h2-------|-----------------|
A|-0h2------0h2-------|---8-7-5-7-8-7-5-|
B|-0--0-0-0-0--0-0-0--|-0-6-5-3-5-6-5-3-|
      . . .    . . . .   . . . . . . . .
                      |-----------------|
    every             |-----------------|
      other  ----->   |-----------------|
        time          |-----------------|
                      |-----------------|
                      |-0-5*vv-0-5*vv---|


 Hook Riff
E|-------------------|--------------|
b|-------------------|--------------|
G|-------------------|--------------|
D|-10-(10)-(10)-/5-4-|-4-4-4-4-4-4--|
A|-8--(8)--(8)--/3-2-|-2-2-2-2-2-2--|
B|-------------------|-0-0-0-0-0-0--|
                        . . . . . .
                     |-----------------|
                     |-----------------|
                     |-----------------|
   Fourth time       |-pick-slide-down-|
                     |-pick-slide-down-|
                     |-\-\-\-\-\-\-\---|

Bridge

Layer 1 (1:48)
E|------------------------|
b|------------------------|
G|-4-(4)-6-7--2-----------|
D|-4-(4)-6-7--2-----------|
A|-2-(2)-4-5--0-----------|
B|----------------8Bv-v---|


Layer 2 (2:02)
E|-------------|-------|
b|-------------|-------|
G|----11-9-7-6-|-6h7-4-|
D|-------------|-------|
A|-------------|-------|
B|-------------|-------|

               |-------|
 alternate     |-------|
   between     |-6-6h7-|
     endings   |-------|
               |-------|
               |-------|

Layer 3 (2:15)
E|-9h10-9----9h10-9-7\5------|
b|----------------------7----|
G|------------------------6--|
D|---------------------------|
A|---------------------------|
B|---------------------------|


E|---------------------------------------------------------------------|
b|---------------------------------------------------------------------|
G|-6b-4-7B-7--14Bv-14h16p14--------14h16p14----------------------------|
D|-------------------------16p15h16--------16p15h16-14-15-16-15-14-12v-|
A|---------------------------------------------------------------------|
B|---------------------------------------------------------------------|
                      ^^^    ^^^This part is a pretty iffy^^^^   ^^^^

E|-9h10-9----9h10-9-7\5------|
b|----------------------7----|
G|------------------------6--|
D|---------------------------|
A|---------------------------|
B|---------------------------|

E|-----------------(----------------------------------)---17Bv---------|
b|-----------------(---insert-------------------------)----------------|
G|-4--6--7--9------(----------pentatonic--------------)----------------|
D|-----------------(----------------------mastery-----)----------------|
A|-----------------(----------------------------------)----------------|
B|-----------------(----------------------------------)----------------|



Important: The song above is NOT stored on the Chordie server. The original song is hosted at www.guitaretab.com. Chordie works as a search engine and provides on-the-fly formatting. Chordie does not index songs against artists/composers will. To remove this song please click here.

This song is displayed as text-only. Transposing and tuning is only available for chordpro-songs.

Login - add to songbook

Rating click stars to rate

Layout
Accuracy

SHARE PAGE  

You need to log in to post comments