Guitar Tabs, Chords and Lyrics


Not A Problem   Black Lips


e------------------|-----------------|








B----0---0---0---0-|---0---0---0---0-|








G--5---5---5---5---|-2---2---2---2---|



D------------------|-----------------|



A------------------|-----------------|



E------------------|-----------------|



e-5--5-5--5-3-|-0--0-0--0-2-|-3--3-3-3-2-0---|-0----0----0-|



B-------------|-------------|--------------3-|----3----3---|



G-------------|-------------|----------------|-------------|



D-------------|-------------|----------------|-------------|



A-------------|-------------|----------------|-------------|



E-------------|-------------|----------------|-------------|



Important: The song above is NOT stored on the Chordie server. The original song is hosted at www.guitaretab.com. Chordie works as a search engine and provides on-the-fly formatting. Chordie does not index songs against artists'/composers' will. To remove this song please click here.

This song is displayed as text-only. Transposing and tuning is only available for chordpro-songs.

Login - add to songbook

Rating click stars to rate

Layout
Accuracy

SHARE PAGE  




You need to log in to post comments