Guitar Tabs, Chords and Lyrics


The Illusion Of Power   Black Sabbath



The Illusion Of Power
Black Sabbath - Forbidden (1995)


|--------------------------------------------------------------|
|--------------------------------------------------------------|
|--------7-----7--9--9--7-----7--------7-----7--9--9--7-----7--|
|--9--9-----9--------------9-----9--9-----9--------------9-----|
|--------------------------------------------------------------|
|--------------------------------------------------------------|


|----------------------------------------------------------|
|----------------------------------------------------------|
|--9-------------------------------------------------------|
|--9-------------------------------------------------------|
|--7---------------------2--1------5-/7--------------------|
|------------------0--3--------0---------------------------|


|----------------------------------------------------------|
|----------------------------------------------------------|
|----------------------------------------------------------|
|-----7--6~-------5^-5~-------7--6~-------5^--5~-----------|
|--5--------7--8--------6--5--------7--8----------6--------|
|----------------------------------------------------------|


|-----------------------------------------------------------|
|-----------------------------------------------------------|
|-----------------------------5-5-5-5-4--3-3-3-3-2----------|
|--7---7----------------------5-5-5-5-4--3-3-3-3-2--2-5-7---|
|--7---7--7--6-----6----7-----3-3-3-3-2--1-1-1-1-0--2-5-7---|
|--5---5--------7-----------------------------------0-3-5---|


|----------------------------------------------------------------|
|----------------------------------------------------------------|
|----------------------------------------------------------------|
|----------------------------------------------------------------|
|---------------5~~-----------2~~---------------5~~---------2~~--|


Important: The song above is NOT stored on the Chordie server. The original song is hosted at www.guitaretab.com. Chordie works as a search engine and provides on-the-fly formatting. Chordie does not index songs against artists'/composers' will. To remove this song please click here.

This song is displayed as text-only. Transposing and tuning is only available for chordpro-songs.

Login - add to songbook

Rating click stars to rate

Layout
Accuracy

SHARE PAGE  




You need to log in to post comments