Guitar Tabs, Chords and Lyrics


Shaking Off The Chains   Black Sabbath



Shaking Off The Chains
Black Sabbath - Forbidden (1995)


|----------------------------------------------------------|
|----------------------------------------------------------|
|------7-----8-----9\8/9\8/9\8-7-----8-----9\8/9\8/9\8-----|
|------7-----8-----9\8/9\8/9\8-7-----8-----9\8/9\8/9\8-----|
|--xx--5-0-0-6-0-0-7\6/7\6/7\6-5-0-0-6-0-0-7\6/7\6/7\6-----|
|-x--------------------------------------------------------|

|----------------------------------------------------------|
|----------------------------------------------------------|
|-12--12-12-12--12-12-12--12-12-12-------------------------|
|-12--12-12-12--12-12-12--12-12-12-------------------------|
|-10--10-10-10--10-10-10--10-10-10-------------------------|
|----------------------------------------------------------|

|---------------------------------------------------------------|
|---------------------------------------------------------------|
|---------------------------------------------------------------|
|----5-6-5-5-3h5p3---3--------------5-6-5-5-3h5p3---3-----------|
|-3----------------6---5h6p5---3--3---------------6---5h6p5---3-|


Important: The song above is NOT stored on the Chordie server. The original song is hosted at www.guitaretab.com. Chordie works as a search engine and provides on-the-fly formatting. Chordie does not index songs against artists'/composers' will. To remove this song please click here.

This song is displayed as text-only. Transposing and tuning is only available for chordpro-songs.

Login - add to songbook

Rating click stars to rate

Layout
Accuracy

SHARE PAGE  




You need to log in to post comments