Guitar Tabs, Chords and Lyrics


After The Mourning   Blacklist Union



Tuning:Standard
Blacklist Union                 Album:After the Mourning
After the Mourning           Transcribed By: Jonathan A. Hosseini


---------------------------------|
---------------------------------|
-------------------6-------------|
-44-4-4-4-4—-4/6---6-------------|
-44-4-4-4-4—-4/6-----------------|
-22-2-2-2-2—-2/4-----------------|

----------------------------------|
----------------------------------|
---------------------6------------|
-44-4-4-4-4—-4/6\4---6------------|
-44-4-4-4-4—-4/6\4---4------------|


Important: The song above is NOT stored on the Chordie server. The original song is hosted at www.guitaretab.com. Chordie works as a search engine and provides on-the-fly formatting. Chordie does not index songs against artists'/composers' will. To remove this song please click here.

This song is displayed as text-only. Transposing and tuning is only available for chordpro-songs.

Login - add to songbook

Rating click stars to rate

Layout
Accuracy

SHARE PAGE  




You need to log in to post comments