Guitar Tabs, Chords and Lyrics


Addicted   Blank Theory



song:   Addicted
artist: The Blank Theory
tabber: Kenny Burgess
email:  Fat105@aol.com


intro
d-------------------------------|
a-------------------------------|
f-------------------------------|
c-------------------------------|
g-------------------------------|
c-7p0--0-0-0-7p0--0-0-0--8-8-8--|


d-------------------------------|
a-------------------------------|
f-------------------------------|
c-------------------------------|
g-7-0--0-0-0-7-0--0-0-0--8-8-8--|
c-7-0--0-0-0-7-0--0-0-0--8-8-8--|


verse:
d-------------------------------|
a-------------------------------|
f--5--4-3---6---5---------------|
c-------------------------------|
g-------------------------------|
c-------------------------------|


chorus: STRUMS NOT INCLUDED
d-----------------------------|
a-----------------------------|
f-----------------------------|
c-----------------------------|
g-0-------8-------5--------7--|


Important: The song above is NOT stored on the Chordie server. The original song is hosted at www.guitaretab.com. Chordie works as a search engine and provides on-the-fly formatting. Chordie does not index songs against artists'/composers' will. To remove this song please click here.

This song is displayed as text-only. Transposing and tuning is only available for chordpro-songs.

Login - add to songbook

Rating click stars to rate

Layout
Accuracy

SHARE PAGE  




You need to log in to post comments