Chordie logo


Kill And Destroy   Blaze



All in drop d. I got more but it needs correcting. Should have it done by the end of the week.

Remember that there are other chords in the background.

|-------------------------------|
|-------------------------------|
|-------------------------------|
|-0-----3-5-----0---0---0-3-5-3-|
|-0-----3-5-----0---0---0-3-5-3-|
|-0-0-0-3-5-0-0-0-0-0-0-0-3-5-3-|

|-----------------------------------|
|-----------------------------------|
|-----------------------------------|
|-0-----3-5-----7---7-----5---5-----|
|-0-----3-5-----7---7-----5---5-----|


Important: The song above is NOT stored on the Chordie server. The original song is hosted at www.guitaretab.com. Chordie works as a search engine and provides on-the-fly formatting. Chordie does not index songs against artists/composers will. To remove this song please click here.

This song is displayed as text-only. Transposing and tuning is only available for chordpro-songs.

Login - add to songbook

Rating click stars to rate

Layout
Accuracy

SHARE PAGE  




You need to log in to post comments