To France

Blind Guardian

 BmAF#mABm
 |------------7-5-|-----------------|-----------7-9-|--------------|
 |--------5-7-----|-------5-7-------|-------3-5-----|-------5------|
 |--4h6-7---------|-4h6-7-----6h7-6-|-2h4-5---------|-4h6-7---6-4--|
 |----------------|-----------------|---------------|--------------|
 |----------------|-----------------|---------------|--------------|
 |----------------|-----------------|---------------|--------------|


 BmAF#m
Takin' on water, sailin' a restless sea
 BmC#mDEBm
From a memory,  a  fantasy
 AF#m
The wind carries into white water

Far from the Islands
 BmC#mDE
Don't you know you're

 F#mEG#mF#mD
 Nev-er going to   get to France
 EF#m
Mary Queen of Chance will they find you
 F#mEG#mF#mD
 Nev-er going to   get to France
 EF#m
Could a new romance ever bind you

Walkin' in foreign grounds like a shadow
Roaming in far off territory
Over your shoulder stories unfold
You're searching for sanctuary you know you're

Never going to get to France...

 DC#mDE
 I see a picture by the lamp's flicker
 DC#mDE
 Isn't it strange how dreams fade and shimmer?

Never going to get to France...

Solo w/Intro chords
|--2-0----------------0-2-3-2-0-|------2--0-----2----0---0--|
|------3--2--0--0-2-3-----------|--3-2-------3---------3----|
|-------------------------------|---------------------------|
|-------------------------------|---------------------------|
|-------------------------------|---------------------------|
|-------------------------------|---------------------------|
|------0-5-0---------------------|---------2--0--3--2--5--3--|
|--2-3-------3-2-3-2-0-2--0------|--0-2-3--------------------|
|---------------------------2-2--|---------------------------|
|--------------------------------|---------------------------|
|--------------------------------|---------------------------|
|--------------------------------|---------------------------|				




A Bm C#m D E F#m G#m
variations - click chord images
Transpose chords:
Tuning:
Cool service:
View: Size:
A  A  A
Rating:
Layout:
  • Currently 3/5 Stars.
  • 1
  • 2
  • 3
  • 4
  • 5
 
Accuracy:
  • Currently 2.3/5 Stars.
  • 1
  • 2
  • 3
  • 4
  • 5
 
click stars to rate
Chordie recommends:
Learn how to play guitar at JamPlay.com
Songbook:
Login to add this song to your songbook
Support the artist
Preview/buy this song
MSN Music
Why this non-profit ad?

 
login to add comments/video/corrections