Chordie logo

Soul One   Blind Melon



Tabbed by: Ian McNaught (Pearlincubus)
Email: imcnaught@student.stonehill.edu

Tuning: standard

This is another great song by an underappreciated band.  I pretty sure
its played on a twelve string but it still sounds great on a six 
string.  I only have the main guitar here, if you want the other
guitar just improvise in E and it will sound cool.  The intro/verse 
riff is awesome and its really what carries the song I think.  Also 
just listen for the strum pattern for the fills/bridge...its pretty 
easy to get.  Too bad more people dont realize how good they really
were...



Blind Melon: Soul One (Nico)

intro/verse

e|-0---0-----0--0-----0-0-0-0-0-0-0-0-0--0-----0-0-0-0----------------|
B|-0-----0---2----2---2-2-2-2/3-2-2-0-0----0---0-0-0-0----------------|
G|-1-------1-2------2-2-2-2-2/4-2-2-0-1------1-1-1-1-1----------------|
D|-2-2-------0--------0-0-0-0-0-0-0-0-2--------2-2-2-2----------------|
A|-2---------0--------0-0-0-0---0-0-0-2--------2-2-2-2----------------|
E|-0---------0--------0-0-0-0---0-0-0-0--------0-0-0-0----------------|


fill at 0:23 

e|--0----3-----1------------------------------------------------------|
B|--3----3-----1------------------------------------------------------|
G|--0----0-----2------------------------------------------------------|
D|--2----0-----3------------------------------------------------------|
A|--3----2-----3------------------------------------------------------|
E|--x----3-----1------------------------------------------------------|


fill at 0:53 and 1:47 

e|--0----0----2------------------------------------------------------|
B|--0----3----3------------------------------------------------------|
G|--1----0----2------------------------------------------------------|
D|--2----2----0------------------------------------------------------|
A|--2----3----x------------------------------------------------------|
E|--0----x----x------------------------------------------------------|


Bridge at 2:16

e|--3--3--2--0---3--3--2---------------------------------------------|
B|--3--3--3--0---3--3--3---------------------------------------------|
G|--0--0--2--0---0--0--2---------------------------------------------|
D|--2--0--0--2---2--0--0---------------------------------------------|
A|--3--2--x--2---3--2--x---------------------------------------------|
E|--x--3--x--0---x--3--x---x2----------------------------------------|



How come, girl was there when I needed one
How come, girl was there when the song is done
Some say, open your eyes to a brighter light
Okay, open my arms, they were right

She was my soul one
She felt like she was the only one
She was the sun, the sky blue eyes	
She was my soul one

Inside, pain in my heart often made her cry
Outside, I cursed the birds in the sugar sky
How long take to realize she's the one
How long until I find my lost and lonely soul one

She was my soul one
She felt like the only one
She was the sun, the sky blue eyes
She was my soul one

Should of never taken the time
'Cause I found myself living a lonely lie
You said you left to find yourself

But I never, no I never got a chance to say goodbye.

She was my soul one
I thought she was the only one
I thought she was...



| /  slide up
| \  slide down
| h  hammer-on
| p  pull-off
| ~  vibrato
| +  harmonic
| x  Mute note


Important: The song above is NOT stored on the Chordie server. The original song is hosted at www.guitaretab.com. Chordie works as a search engine and provides on-the-fly formatting. Chordie does not index songs against artists/composers will. To remove this song please click here.

This song is displayed as text-only. Transposing and tuning is only available for chordpro-songs.

Login - add to songbook

Rating click stars to rate

Layout
Accuracy

SHARE PAGE  



You need to log in to post comments