Guitar Tabs, Chords and Lyrics


Painting   Blindside



Hey I tabbed out this song Cuz its sick.
Artist: Blindside   Album: Silence
Song: painting (#9)
Tabbed by: Kevin Alvarado (FUZZ) S.I. Batman
Tuning Dropped D + tuned down half step( Db Ab Db Gb Bb eb )
Intro/Verse:
e|-------------------------------------------|
B|-------------------------------------------|
G|-------------------------------------------|
D|--2-2-2--2-2-2-------5-5-5-5-5-5-5-5-------|
A|--2-2-2--0-0-0--5-5--3-3-3-3-3-3-3-3-------|
D|--2-2-2---------5-5------------------------|

|-----------------------------------|
|-----------------------------------|
|-----------------------------------|
|-2-2-2--2-2-2----------------------|
|-2-2-2--0-0-0-5-5-4-4-4-4-4-4-4-4--|
|-2-2-2--------5-5-4-4-4-4-4-4-4-4--|

Verse#2
|-----------------------------------------------------------|
|-----------------------------------------------------------|
|---------------------------------------------0-2-4----0----|
|-----2--5-4-0-2—2-2-2-2-2------------2--5-4----------2-----|
|----2------------------------------2---------------5-------|
|---2-----------------------------2-------------------------|

Chorus
--------------------------------------------|
|-------------------------------------------|
|-------------------------------------------|
|--4h5p4p0----------------------------------|
|-------------1010101010101010101010101010--|
|-------------1010101010101010101010101010--|

|----------------------------------------|
|----------------------------------------|
|----------------------------------------|
|-9999-7777-9999-12121212----------------|
|-7777-5555-7777-10101010----------------|
|----------------------------------------|


After doing that play 10 on E and A 14 times.
Solo
|----------------------------|
|-12121212101010108888777777-|
|----------------------------|
|----------------------------|
|----------------------------|
|----------------------------|

|--------------------------------------|
|--------------------------------------|
|----------1212121212121111111111888888|
|1010101010----------------------------|
|--------------------------------------|
|--------------------------------------|

|-------------------------------------------------------|
|-1212121212121010101010108888881010101012121213x22---- |
|-------------------------------------------------------|
|-------------------------------------------------------|
|-------------------------------------------------------|
|-------------------------------------------------------|
A few notes:

This entire song is in heavy distortion except the second verse

Song Order: Verse, Verse #2, Chorus, Verse,


Important: The song above is NOT stored on the Chordie server. The original song is hosted at www.guitaretab.com. Chordie works as a search engine and provides on-the-fly formatting. Chordie does not index songs against artists'/composers' will. To remove this song please click here.

This song is displayed as text-only. Transposing and tuning is only available for chordpro-songs.

Login - add to songbook

Rating click stars to rate

Layout
Accuracy

SHARE PAGE  




You need to log in to post comments